Guitar Tabs, Chords and Lyrics


A Start    Anti Flag



< : continuous strumming
( ) : Directive to follow
PM___: Palm mute


Intro

|-----------------------|-x2-----------------------------|-x4-----------------
|-----------------------|--------------------------------|--------------------
|--8-8-------6-6--5--5--|--8-8-8-x---------6-6-6-x-5--5--|-----8--------------
|--8-8--8-8--6-6--5--5--|--8-8-8-x-8-8-8-x-6-6-6-x-5--5--|-----8(lets ring)---
|--6-6--8-8--4-4--3--3--|--6-6-6-x-8-8-8-x-4-4-4-x-3--3--|-----6--------------
|-------6-6-------------|----------6-6-6-x---------------|--------------------

Verse

1st guit
|----------------------------------------------------------|-x4---------------
|----------------------------------------------------------|------------------
|--8--8--8--8--8--8--8--8--11--11--11--11--11--11--11--11--|------------------
|--8--8--8--8--8--8--8--8--11--11--11--11--11--11--11--11--|------------------
|--6--6--6--6--6--6--6--6---9---9---9---9---9---9---9---9--|------------------
|----------------------------------------------------------|------------------


2nd guit
|----------------------------------------------------------|-x2---------------
|--------------------------------------------------8-------|------------------
|--8(lets ring)------------11(lets ring)--11-------6-------|------------------
|--6------------------------9--------------9---------------|------------------
|----------------------------------------------------------|------------------
|----------------------------------------------------------|------------------


|-----------------------8----------------------------------|-x2---------------
|--------------------8-----------------------------8-------|------------------
|--8(lets ring)------------11(lets ring)---11------6-------|------------------
|--6------------------------9---------------9--------------|------------------
|----------------------------------------------------------|------------------
|----------------------------------------------------------|------------------


1st guit
|------------------------------------|-x2-------------------------------------
|------------------------------------|----------------------------------------
|--8-------------8-8--8-8--8-8--8-8--|-----8

Important: The song above is NOT stored on the Chordie server. The original song is hosted at www.xguitar.com. Chordie works as a search engine and provides on-the-fly formatting. Chordie does not index songs against artists'/composers' will. To remove this song please click here.

This song is displayed as text-only. Transposing and tuning is only available for chordpro-songs.

Login - add to songbook

Rating click stars to rate

Layout
Accuracy

SHARE PAGE  




You need to log in to post comments