Guitar Tabs, Chords and Lyrics


Daddy Warbuy    Anti Flag



Tabbed by: Alphonso
Daddy Warbucks
A=Right Guitar B=Left Guitar

IntroA&B   *=play 3x            
e|-----------------------------|
B|-----*------*------*--------*|
G|8-6-4-1110-6--8-6-4-11-13-15-|
D|-----------------------------|
A|6-4-2--9-8-4--6-4-2--9-11-13-|
E|-----------------------------|

Verse 1A&B
e|-----------------------------------------|
B|-------|_Repeat 3 Times_______|--------*-|
G|8xxxx-*-13\11xxxx--*10\8xxxx-*-11-13-15--|
D|8xxxx9-------xxxx11-----xxxx9------------|
A|6xxxx9--11\9-xxxx11--8\6xxxx9---9-11-13--|
E|-----7-----------9----------7------------|

A&B Play IntroA&B

BridgeA&B
e|-------------------------------|
B|-----*-------*------*---------*|
G|8-6-4--1110-6--8-6-4--11-13-15-|
D|8-6-4--1110-6--8-6-4--11-13-15-|
A|6-4-2---9-8-4--6-4-2---9-11-13-|
E|-------------------------------|

Verse2A
e|-------------------------------------------------------------------|
B|------------------------------------------------------------------*|
G|8-------6-8------10-8---6-4-3-4---8------6-8-------10-8---11-13-15-|
D|-------------------------------------------------------------------|
A|-----------------------------------------------------------9-11-13-|
E|-------------------------------------------------------------------|
Verse2B
e|-------------------------------------------------------------------|
B|------------------------------------------------------------------*|
G|8xxxx-*11xxxx--*-8xxxx-*11xxxx--*-8xxxx-*11xxxx--*-8xxxx-*11-13-15-|
D|8xxxx9-11xxxx11--8xxxx9-11xxxx11--8xxxx9-11xxxx11--8xxxx9----------|
A|6xxxx9--9xxxx11--6xxxx9--9xxxx11--6xxxx9--9xxxx11--6xxxx9--9-11-13-|
E|-----7--------9-------7--------9-------7--------9-------7----------|

Play IntroA&B,BridgeA&B

Bridge2A&B                                *=play 3x
e|-----------------------------------------------------------------|
B|-----------------------------------------------------------------|
G|8xxxx-*11xxxx--*8xxxx-*11xxxx------------------------------------|
D|8xxxx9-11xxxx11-8xxxx9-11xxxx11~--11-11-11~--11-11-11~--11-11-11~|
A|6xxxx9--9xxxx11-6xxxx9--9xxxx11~--11-11-11~--11-11-11~--11-11-11~|
E|-----7--------9------7--------9~---9--9--9~---9--9--9~---9--9--9~|

Verse3A&B
e|--------------------------------------|
B||_pm_|-|pm_|---|__pm__|--|__pm__|-----|
G|-8888-8---------111111-11-------------|
D|-8888-8-999-9-9-111111-11-111111-11-11|
A|-6666-6-999-9-9--9-9-9--9-111111-11-11|
E|--------777-7-7------------9-9-9--9--9|
:
:
>>>>>>>>>>>>On to next page....
:
:
Verse3A&B Continued
e|---------------------------------------------|
B|----|PM|---------------|_PM_|----------------|
G|10\8-88-8|PM_|----13\11-1111-11|__PM__|------|
D|-----88-8-999-9-9-------1111-11-111111-11-11-|
A|-8\6-66-6-999-9-9-11\9---9-9--9-111111-11-11-|
E|----------777-7-7----------------9-9-9--9--9-|
Verse3 A&B Continued
e|---------------------------|
B|----|pm|-|pm_|------------*|
G|10\8-88-8---------11-13-15-|
D|-----88-8-999-9-9----------|  then A&B play introA&B
A|-8\6-66-6-999-9-9--9-11-13-|
E|----------777-7-7----------|

OutroA   \/=play note 2x                            
e|------------------------------------------------|
B|------------------------------------------------|
G|8-88-8886-88888811-1111-8-8881113-8-8888-6-6-6--|
D|-----------------------------\/\/---------------|
A|------------------------------------------------|
E|------------------------------------------------|
OutroB
e|------------------------------------------------|
B|------------------------------------------------|
G|8xxxx-----11xxxx--------8xxxx-----11xxxx--------|     
D|8xxxx9-99-11xxxx11-1111-8xxxx9-99-11xxxx11-1111-|
A|6xxxx9-99--9xxxx11-1111-6xxxx9-99--9xxxx11-1111-|
E|-----7-77--------9--9-9------7-77--------9--9-9-|

OutroA Continued
e|--------------|--------|
B||_____X3_____||--------|
G|-8-6-8-6-8-11-|-8-6-66-|
D|--------------|--------|I don’t know the timing
A|-6-4-6-4-6-9--|-6-4-44-|
E|--------------|--------|
OutroB Continued
Play OutroB again without Last 2 notes


Important: The song above is NOT stored on the Chordie server. The original song is hosted at www.xguitar.com. Chordie works as a search engine and provides on-the-fly formatting. Chordie does not index songs against artists'/composers' will. To remove this song please click here.

This song is displayed as text-only. Transposing and tuning is only available for chordpro-songs.

Login - add to songbook

Rating click stars to rate

Layout
Accuracy

SHARE PAGE  




You need to log in to post comments