Guitar Tabs, Chords and Lyrics


Phantoms Now    Armor For Sleep



Artist: Armor for sleep
Song: Phantoms Now

This song is in Drop D tuning and has been worked out so it can be played with one guitar.

* this means to Let the note ring

Intro-Verse
E ----------------
B --------7---7-7-
D 0-0-0-0-0---0-0-
A 0-0-0-0-5---5-5-
D 0-0-0-0---------

E ----------------
B --------6---6-6-
D 0-0-0-0-0---0-0-
A 0-0-0-0-4---4-4-
D 0-0-0-0---------

E ----------------
B --------4---4-4-
D 0-0-0-0-0---0-0-
A 0-0-0-0-2---2-2-
D 0-0-0-0---------

E ----------------
B ----------------
D 0-0-0-0-9---9-9-
A 0-0-0-0-0---0-0-
D 0-0-0-0-7---7-7-

This is played 3 times

Pre-Chorus

E ----------------
B 4-4-4-4-4-4-4-4-
D 0-0-0-0-0-0-0-0-   x1
A 2-2-2-2-2-2-2-2-
D ----------------

E --
B 12-
D 0--    x24
A 9--
D --

The Pre-Chorus is played 3 times

Chorus
E -----------------
B 7*------6*------
D 0*------0*------   x2
A 5*------4*------
D ----------------

E ---------------- ---------------- ---------------- ----------------
B 7-7-7-7-7-7-7-7- 6-6-6-6-6-6-6-6- 4-4-4-4-4-4-4-4- ----------------
D 0-0-0-0-0-0-0-0- 0-0-0-0-0-0-0-0- 0-0-0-0-0-0-0-0- 9-9-9-9-9-9-9-9- x2
A 5-5-5-5-5-5-5-5- 4-4-4-4-4-4-4-4- 2-2-2-2-2-2-2-2- 0-0-0-0-0-0-0-0-
D ----------------  --------------- ---------------- 7-7-7-7-7-7-7-7-

Pre-Chorus played again 3 times

Then the Chorus



Important: The song above is NOT stored on the Chordie server. The original song is hosted at www.xguitar.com. Chordie works as a search engine and provides on-the-fly formatting. Chordie does not index songs against artists/composers will. To remove this song please click here.

This song is displayed as text-only. Transposing and tuning is only available for chordpro-songs.

Login - add to songbook

Rating click stars to rate

Layout
Accuracy

SHARE PAGE  




You need to log in to post comments