Guitar Tabs, Chords and Lyrics


A Thousand Steps    As I Lay Dying



As I lay dying - A Thousand Steps
Tabbed By: doublefisted
Email: powellskater666@hotmail.com

Tuning: Drop C (C G C F A D)

2nd tab sounds right email me if u got any thing that you can give me to make it right. thanks.

let ring for feed back till 0:23

D|0x--------------||
A|0x--------------||
F|----------------||
C|----------------||
G|----------------||
C|----------------||

Riff A
D|--------------------------------||
A|--------------------------------||
F|--------------------------------||
C|--------------------------------||
G|-7h8p7-5--7h8p7-5--0-0----------||
C|-------------------0-0----------||
PM                   . .
Riff B play each section 4x
D|--------|--------|-------|--------------------------------------||
A|----9---|----11--|----14-|----19--on 4th time let ring----------||
F|----7---|----9---|----12-|----15--------------------------------||
C|--------|--------|-------|--------------------------------------||
G|--------|--------|-------|--------------------------------------||
C|-000----|-000----|-000---|-000----------------------------------||
PM ...      ...      ...     ...


D|----------------------------------------------------------------||
A|----------------------------------------------------------------||
F|------9----9~------9----9---------------------------------------||
C|------7----7~------7----7---------------------------------------||
G|--000---00-----000---00----0--0--0------------------------------||
C|--000---00-----000---00----0--0--0------------------------------||
PM  ...   ..     ...   ..    .  .  .

Play Riff A

D|----------------------------------------------------------------||
A|----------------------------------------------------------------||
F|----------------------When sliding stop between each fret for---||
C|-0~------7~-------------half a second--------------------------||
G|-0~------5~----3/16---------------------------------------------||
C|-0~-------------------------------------------------------------||


D|----------------||
A|-14-16-17p15p14-||
F|----------------||
C|----------------||
G|----------------||
C|----------------||


D|----------------||
A|----------------||
F|----999---------||
C|-0--777---------||
G|-0--777---------||


Important: The song above is NOT stored on the Chordie server. The original song is hosted at www.xguitar.com. Chordie works as a search engine and provides on-the-fly formatting. Chordie does not index songs against artists'/composers' will. To remove this song please click here.

This song is displayed as text-only. Transposing and tuning is only available for chordpro-songs.

Login - add to songbook

Rating click stars to rate

Layout
Accuracy

SHARE PAGE  




You need to log in to post comments