Guitar Tabs, Chords and Lyrics


Repeating Yesterday    As I Lay Dying



Band:  As I Lay Dying
Album: Shadows Are Security
Song:  Repeating Yesterday

Label:  Metal Blade 2005


Transcribed By: Chris Boser
Email:          Bullboze@optonline.net


.  - palm mute           /  - slide up to
\  - slide down to       ~  - vibrato
h  - hammer on           b  - Bend
p  - pull off            Suffixes for bend
t  - tap                 f  - full bend    h - half bend
ph - pinched harmonic    q  - quarter bend t - tap bend
*  - see comment         ^  - Hold bend    r release bend
x  - Stuccatto           ~  - vibrato bend
,  - slight palm mute    () - ghost note, sustained note
"  - tremolo note         - Trill

Tuning C G C F A D

Intro with Guitar and drums until 1:08
D|-------------------------------------------------------------------|
A|-------------------------------------------------------------------|
F|-------------------------------------------------------------------|
C|-------------------------------------------------------------------|
G|-------------------------------------------------------------------|
C|-------------------------------------------------------------------|
(havent figured out intro yet, will be up soon)
Verse/Chrous
D|-------------------------------------------------------------------|
A|-------------------------------------------------------------------|
F|-1212121212121212-10101010--9999-1010101010101010-9999-5555--------|
C|-x-x-x-x-x-x-x-x--x-x-x-x---xxxx-x-x-x-x-x-x-x-x--xxxx-xxxx--------|2x
G|-1010101010101010-8-8-8-8---7777-8-8-8-8-8-8-8-8--7777-3333--------|
C|-------------------------------------------------------------------|

D|-----------------------------------------------------------------------|
A|-----------------------------------------------------------------------|
F|--1515151515151515-14141414-10101010--1414141414141414-1212121212121212|
C|--x-x-x-x-x-x-x-x--x-x-x-x--x-x-x-x---x-x-x-x-x-x-x-x--x-x-x-x-x-x-x-x-|2x
G|--1313131313131313-12121212-8-8-8-8---1212121212121212-1010101010101010|
C|-----------------------------------------------------------------------|


D|-------------------------------------------------------------------|
A|-------------------------------------------------------------------|
F|-1212121212121212-10101010--9999-1010101010101010-9999-5555--------|
C|-x-x-x-x-x-x-x-x--x-x-x-x---xxxx-x-x-x-x-x-x-x-x--xxxx-xxxx--------|2x
G|-1010101010101010-8-8-8-8---7777-8-8-8-8-8-8-8-8--7777-3333--------|
C|-------------------------------------------------------------------|

D|-----------------------------------------------------------------------|
A|-----------------------------------------------------------------------|
F|--1515151515151515-14141414-10101010--1414141414141414-1212121212121212|
C|--x-x-x-x-x-x-x-x--x-x-x-x--x-x-x-x---x-x-x-x-x-x-x-x--x-x-x-x-x-x-x-x-|2x
G|--1313131313131313-12121212-8-8-8-8---1212121212121212-1010101010101010|
C|-----------------------------------------------------------------------|


D|--------------------------------------|
A|--------------------------------------|
F|-----------------------10-------------|
C|--------7777--------7h8--8------------|4x
G|--0000--5555--0000--------------------|
C|--0000--------0000--------------------|
    ....        ....
D|----------------------------------------------------------------------|
A|--------------------------------------------181818181818181818--------|
F|---19191919191919191919---2121212121212121----------------------------|
C|----------------------------------------------------------------------|
G|----------------------------------------------------------------------|
C|----------------------------------------------------------------------|
Figure out exact strokes...

D|--------------------------------------|
A|--------------------------------------|
F|-----------------------10-------------|
C|--------7777--------7h8--8------------|4x
G|--0000--5555--0000--------------------|
C|--0000--------0000--------------------|
    ....        ....
D|-------------------------------------------------------------------|
A|-------------------------------------------------------------------|
F|-1212121212121212-10101010--9999-1010101010101010-9999-5555--------|
C|-x-x-x-x-x-x-x-x--x-x-x-x---xxxx-x-x-x-x-x-x-x-x--xxxx-xxxx--------|2x
G|-1010101010101010-8-8-8-8---7777-8-8-8-8-8-8-8-8--7777-3333--------|
C|-------------------------------------------------------------------|

D|-----------------------------------------------------------------------|
A|-----------------------------------------------------------------------|
F|--1515151515151515-14141414-10101010--1414141414141414-1212121212121212|
C|--x-x-x-x-x-x-x-x--x-x-x-x--x-x-x-x---x-x-x-x-x-x-x-x--x-x-x-x-x-x-x-x-|2x
G|--1313131313131313-12121212-8-8-8-8---1212121212121212-1010101010101010|
C|-----------------------------------------------------------------------|


D|-------------------------------------------------------------------|
A|-------------------------------------------------------------------|
F|-1212121212121212-10101010--9999-1010101010101010-9999-5555--------|
C|-x-x-x-x-x-x-x-x--x-x-x-x---xxxx-x-x-x-x-x-x-x-x--xxxx-xxxx--------|2x
G|-1010101010101010-8-8-8-8---7777-8-8-8-8-8-8-8-8--7777-3333--------|
C|-------------------------------------------------------------------|

D|-----------------------------------------------------------------------|
A|-----------------------------------------------------------------------|
F|--1515151515151515-14141414-10101010--1414141414141414-1212121212121212|
C|--x-x-x-x-x-x-x-x--x-x-x-x--x-x-x-x---x-x-x-x-x-x-x-x--x-x-x-x-x-x-x-x-|2x
G|--1313131313131313-12121212-8-8-8-8---1212121212121212-1010101010101010|
C|-----------------------------------------------------------------------|


D|-----------------------------------|
A|-----------------------------------|
F|-----------------------------------|
C|---0~------------------------------|
G|---0~--(Fade Out with Piano)-------|
C|---0~------------------------------|



Important: The song above is NOT stored on the Chordie server. The original song is hosted at www.xguitar.com. Chordie works as a search engine and provides on-the-fly formatting. Chordie does not index songs against artists/composers will. To remove this song please click here.

This song is displayed as text-only. Transposing and tuning is only available for chordpro-songs.

Login - add to songbook

Rating click stars to rate

Layout
Accuracy

SHARE PAGE  




You need to log in to post comments