Chordie logo


Different Today   Ash



Different today
Ash

fill
e|---------------------------------------------|
B|-6-6---6-6-5--------------------------5------|
G|-5-5---------4-5-4-5--------4-4-5--5-----5---|
D|----------------------5-5--------------------|
A|---------------------------------------------|
E|---------------------------------------------|

solo
e|-10-------------------------------------------------------------------|
B|-----8vb------------------------------------------------------10------|
G|-------------5-----5-6-7----5b-------------------------7h9----10------|
D|-----------------7----------5b----------------5---7h9-----------------|
A|----------------------------------7--------7--------------------------|
E|--------------------------------------8-------------------------------|


e|-------------13-12-16---17p15p14--------------------------------------|
B|-10-12-12v-------------------------17p15p14--------12-13--------------|
G|---------------------------------------------16v----------12-13-14/---|
D|----------------------------------------------------------------------|
A|----------------------------------------------------------------------|
E|----------------------------------------------------------------------|


e|----------------------------------------------------------------------|
B|-10-----12-13--10-10-12-12-----12-13--10----12-13--10-10-12-12--------|
G|-10--9--12-12--10-10-12-12-9---12-12--10-9--12-12--10-10-12-12-9------|
D|----------------------------------------------------------------------|
A|----------------------------------------------------------------------|
E|----------------------------------------------------------------------|

e|-----------------------------------------------|
B|--12-13--10-10------12-13--10-10-12-12---------|
G|--12-12--10-10--9---12-12--10-10-12-12--9------|
D|-----------------------------------------------|
A|-----------------------------------------------|
E|-----------------------------------------------|

e|-----------------------------------------------|
B|-----------------------------------------------|
G|--9--h10p9h10p9h10p9h10p9----------------------|
D|---------------------------7-5-----------------|
A|---------------------------------7-------------|
E|-------------------------------------5/--------|


Intro fill 4x

Verse: D  A   G   C     4x

Chorus: D    A     C#     D    A    E   2x
        G                       B           E


fill 4x

Verse: D  A   G   C     4x


Repeat chorus

Solo

Chorus: D    A     C#     D    A    E   4x




Important: The song above is NOT stored on the Chordie server. The original song is hosted at www.xguitar.com. Chordie works as a search engine and provides on-the-fly formatting. Chordie does not index songs against artists/composers will. To remove this song please click here.

This song is displayed as text-only. Transposing and tuning is only available for chordpro-songs.

Login - add to songbook

Rating click stars to rate

Layout
Accuracy

SHARE PAGE  




You need to log in to post comments