Guitar Tabs, Chords and Lyrics


Fahrenheit   At The Drive-In



1st bar
e:-----------------------|
b:-----------------------|
g:--9-9-9-9-9-9-9-9-9----|
d:-----------------------|
a:--7-7-7-7-7-7-7-7-7----|
E:-----------------------|


intro + verse

e:-----------------------------------| hold the last chord on
b:-----------------------------------| the last one into
g:--9-9-x--9-9-9---12--12------------| the chorus..
d:--9-9-x--9-9-9---12--12--121212-12-|
a:--7-7-x--x-x-x---10--10--101010-10-|
E:--0-0-x--7-7-7---------------------|

_____________________
chorus

e:-----------------------------------------|
b:-----------------------------------------|
g:--9-9-9--7/9-9-9-9-----------------------|
d:---------------------12--------10--------|
a:--7-7-7--5/7-7-7-7---12-strum--10-strum--|
E:---------------------10--------8---------|

____________________________
the middle bit

a:--------12------10------7------5---5h7----|
E:---0-0-----0-0------0-0---0-0----0--------|


a:--------12---9-----------9-------9---|
E:---8-8-----8---8---10-10---10-10-----|



________________________
best bit of the song...

e:------------------12---|
b:-----------------------|
g:---9-------------------|
d:---8-------------------|
a:---7-strum-------------|
E:---0----------10-------|




Important: The song above is NOT stored on the Chordie server. The original song is hosted at www.xguitar.com. Chordie works as a search engine and provides on-the-fly formatting. Chordie does not index songs against artists'/composers' will. To remove this song please click here.

This song is displayed as text-only. Transposing and tuning is only available for chordpro-songs.

Login - add to songbook

Rating click stars to rate

Layout
Accuracy

SHARE PAGE  




You need to log in to post comments