Guitar Tabs, Chords and Lyrics


Picket Fence Cartel   At The Drive-In



Picket Fence Cartel    by At The Drive-in
El Gran Orgo
tabber: niggas killah  (deathtone@wanadoo.fr)

Intro:
e|------------------------------------|--------------------
b|---11-11-11---11-11-11---11-11-11---|--------------------
g|----x--x--x----x--x--x----x--x--x---|--------------------
d|----8--8--8----8--8--8----8--8--8---|--------------------
a|---10-10-10---10-10-10---10-10-10---|---8-8-8-10-10-12---
e|------------------------------------|---6-6-6--8--8-10---

Verse:
 gtr1:
e|---------------------------------------------------------------------------------
b|---11-11-11-11-11--11-11-11-11-11--11-11-11--------------------------------------
g|----x--x--x--x--x---x--x--x--x--x---x--x--x---9--9--9--9--9-----------11-11-11---
d|----8--8--8--8--8---8--8--8--8--8---8--8--8--10-10-10-10-10--12-12-12--x--x--x---
a|---10-10-10-10-10--10-10-10-10-10--10-10-10---8--8--8--8--8--12-12-12--9--9--9---
e|-------------------------------------------------------------10-10-10------------

 gtr2:
e|----------------------
b|----------------------
g|---8--7--10--9--11----
d|----------------------
a|---6--5---8--7---9----
e|----------------------

Chorus: both guitars
e|----------------------------------
b|----------------------------------
g|---------5-5-5-10-10-10-----------
d|---5-5-5-5-5-5--x--x--x-8--8--8---
a|---5-5-5-3-3-3--8--8--8-8--8--8---
e|---3-3-3----------------6--6--6---
           thenÂ…
  gtr1:                then gtr2:
e|--------------------|--------------------
b|---11-11-11-11-11---|---13-13-13-13-13---
g|----x--x--x--x--x---|---12-12-12-12-12---
d|----8--8--8--8--8---|----x--x--x--x--x---
a|---10-10-10-10-10---|---10-10-10-10-10---
e|--------------------|--------------------

Bridge:
   gtr1:
e|-------------------------------------------|-----------------------
b|---9\\8--9\\8---xx---------------------------|---------------10-11---
g|--------------xx-7-8-7-8--10--12--10--12---|--7--8--10--12---------
d|--------------xx---------------------------|-----------------------
a|-------------------------------------------|-----------------------
e|-------------------------------------------|-----------------------

  gtr2:
e|--------------------|-------------------------
b|--------------------|---- palm mute ----------
g|---8--8-8--7--7-7---|-------------5-5-5-5-5---
d|---8--8-8--7--7-7---|---5-5-5-5-5-5-5-5-5-5---
a|---6--6-6--5--5-5---|---5-5-5-5-5-3-3-3-3-3---


Important: The song above is NOT stored on the Chordie server. The original song is hosted at www.xguitar.com. Chordie works as a search engine and provides on-the-fly formatting. Chordie does not index songs against artists'/composers' will. To remove this song please click here.

This song is displayed as text-only. Transposing and tuning is only available for chordpro-songs.

Login - add to songbook

Rating click stars to rate

Layout
Accuracy

SHARE PAGE  




You need to log in to post comments