Chordie logo


A Devil Among the Tailors   At The Drive-In



Band: At The Drive-In
Title: A Devil Among The Tailors
Album: in/CASINO/OUT
Tabber: Sqweeky

Verse:
e|-------------------------------------------
b|-------------------------------------------
g|---10-10-10-10-10---10-10-10-10-10-10-10---
d|----9--9--9--9--9----9--9--9--9--9--9--9---
a|----8--8--8--8--8----8--8--8--8--8--8--8---
e|---------------------7--7--7--7--7--7--7---

Riff 2:
 gtr1: (stacatto)
e|--------------------------------------------------------
b|--------------------------------------------------------
g|--------------------------------------------------------
d|--------------------------------------------------------
a|--------------------------------------------------------
e|---1111444411433336666336-111144441143333666633333333---

 gtr2:
e|---13--------------------13---------------------
b|------------------------------------------------
g|------13-11h13-13-11h13-----13-11h13-13-11h13---
d|------------------------------------------------
a|------------------------------------------------
e|------------------------------------------------

Riff 3:
 gtr1:
e|-----------------------------------------------
b|-----------------------------------------------
g|---10-10-10-10-10-10-----------------7-7-7-7---
d|----9--9--9--9--9--9-7-7-7-7-6-6-6-6-9-9-9-9---
a|----8--8--8--8--8--8-7-7-7-7-6-6-6-6-9-9-9-9---
e|---------------------5-5-5-5-4-4-4-4-----------
   It’s so hard to tab the 2nde guitar. Help me!

end with:
e|---0---
b|---0---
g|---0---
d|---2---
a|---2---


Important: The song above is NOT stored on the Chordie server. The original song is hosted at www.xguitar.com. Chordie works as a search engine and provides on-the-fly formatting. Chordie does not index songs against artists/composers will. To remove this song please click here.

This song is displayed as text-only. Transposing and tuning is only available for chordpro-songs.

Login - add to songbook

Rating click stars to rate

Layout
Accuracy

SHARE PAGE  




You need to log in to post comments