Guitar Tabs, Chords and Lyrics


Hulahoop Wounds   At The Drive-In



e|-------------------------------------|
     b|-------------------------------------|
     g|----------------4-2--55-44-----------|
Gu1  d|-----222--9-----4-2--55-44-----------|
     a|-----222--9-----2-0--77-66-----------|
     E|-----000--7--------------------------|

     e:-0---0-----------|------------------0-|repeated for intro
     b:-0---0---9b------|------------------0-|
 Gu2 g:-1---1---------4-|---2-2-2---7-7-6--1-|
     d:-2---2---------4-|---2-2-2---7-7-6--2-|
     a:-2---2---------2-|---0-0-0---5-5-4--2-|
     E:-0---0-----------|------------------0-|

________________________________________________

     (1.2) x1
     e:-----------------|-----------------|
     b:-----------------|-----------------|
 Gu1 g:-7-7-7-7-7-7-7-7-|-6-6-6-6-6-6-6-6-|
     d:-7-7-7-7-7-7-7-7-|-6-6-6-6-6-6-6-6-|
     a:-5-5-5-5-5-5-5-5-|-4-4-4-4-4-4-4-4-|
     E:-----------------|-----------------|

     e:-----------------|-----------------|----
     b:-----------------|-----------------|----
 Gu2 g:-9---------------|-7-------6-------|----
     d:-----------------|-----------------|-2--
     a:-----------------|-----------------|----
     E:-----------------|-----------------|----

___________________________________________________
Verse riff
      (2.1)  x4
     e:-----------------|-----------------|-----------------|-----------------|
     b:-----------------|-----------------|-----------------|-----------------|
 Gu1 g:-----1-------1---|-----1-------1---|-----1-------1---|-----------------|
     d:---2---2---2---2-|---2---2---2---2-|---2---2---2---2-|-----------------|
     a:-2-------0-------|---------0-------|-2-------0-------|-----------------|   
     E:-----------------|-2---------------|-----------------|-0---------------|   

	(Update)
     e:-----0-------0---|-----0-------0---|-----0-----------|-0---------------|
     b:-----0-------0---|-----0-------0---|-----0---3p2-----|-0---------------|
 Gu2 g:-1h2-----1h2-----|-1h2-----1h2-----|-1h2-------------|-1---------------|
     d:-----------------|-----------------|-----------------|-2---------------|
     a:-----------------|-----------------|-----------------|-----------------|
     E:-----------------|-----------------|-----------------|-----------------|
    very quiet in left speaker(i think)

______________________________________________________________
chorus
       (3.1)x1    **
     e:-------|---------| 
     b:-------|---------|     
 Gu1 g:-6-----|-5-4-5---| 
     d:-6-----|-5-4-5---| 
     a:-4-----|-3p2p3---| 
     E:-------|---------| 
         x4
     e|-------------------------------------------|
     b|--- ---------------------------------------|
     g|----77-6-7-6--222--------------------------|
     d|----77-6-7-6--222--------------------------|
     a|----99p8p9-8--000--------------------------|
     E|-------------------------------------------|
    strum these chords

 Gu2 e:-0---000-0---000-0---000-0---000-|  x2 along with first 2 bars above
     b:-3h5-555-3h5-555-3h5-555-3h5-555-|

	

then (2.1) x2 and into (2.2)

        (2.2) x3
       e:-------|---------|---------|-0-------|
       b:-------|---------|---------|-0-------|
 Gu1+2 g:-1---1-|-1---1---|-1---1---|-1-------|
       d:-2---2-|-2---2---|-2---2---|-2-------|
       a:-2---0-|-----0---|-2---0---|-2-------|
       E:-0-----|-2-------|-0-------|-0-------|



Important: The song above is NOT stored on the Chordie server. The original song is hosted at www.xguitar.com. Chordie works as a search engine and provides on-the-fly formatting. Chordie does not index songs against artists'/composers' will. To remove this song please click here.

This song is displayed as text-only. Transposing and tuning is only available for chordpro-songs.

Login - add to songbook

Rating click stars to rate

Layout
Accuracy

SHARE PAGE  




You need to log in to post comments