Guitar Tabs, Chords and Lyrics


Lopsided   At The Drive-In



*Corrected
-----------------------------------------------------------------------
-----------------------------------------------------------------------
-------666-666--666--666--9--9--9--------------------------------------
-777---777-777--777--777--9--9--9---777--777--777--777--777------------
-555---XXX-XXX--XXX--XXX--X--X--X---555--555--555--555--555------------
-333---777-777--777--777--10-10-10--333--333--333--333--333------------

                            .
----------14-------10-------14--||-------------------------------------
-10----10----10-------10--------||-------------------------------------
----11----------11-------11-----||---------666666999999----------------
--------------------------------||-/7---5------------------------------
--------------------------------||-/5---5--999999777777----------------
--------------------------------||-----03--777777555555----------------


-14-------10-------||------------------------||------------------------
----10-------10----||------------------------||------------------------
-------11-------11-||-6~~~~~~~~/9------------||-6----------------------
-------------------||-7~~~~~~~~/9-7~~~~~~~~~-||-7----------------------
-------------------||-5~~~~~~~~/7-5~~~~~~~~~-||-5----------------------
-------------------||-------------3~~~~~~~~~-||--(3)-------------------



Important: The song above is NOT stored on the Chordie server. The original song is hosted at www.xguitar.com. Chordie works as a search engine and provides on-the-fly formatting. Chordie does not index songs against artists'/composers' will. To remove this song please click here.

This song is displayed as text-only. Transposing and tuning is only available for chordpro-songs.

Login - add to songbook

Rating click stars to rate

Layout
Accuracy

SHARE PAGE  




You need to log in to post comments