Guitar Tabs, Chords and Lyrics


Transatlantic Foe   At The Drive-In



Riff 1

       e:--------7-5-----|
       b:--5---5-----5---|
Gu1    g:----6---------6-|
 left  d:----------------|
       a:----------------|
       e:----------------|

after a bit Gu2 comes in aswell at Gu1 continuing the above riff

       e:----------------|
       b:--7-----9-------|
Gu2    g:----8-9---9-----|
 right d:----------------|
       a:----------------|
       e:----------------|

_____________________________________________________
Riff 2

The chords are:
 E/ G#m// C#m/ |---repeated--

__________________________________________________________
Riff 3

       e:-----------7-5-----|--continue---
       b:---5---5-------5---|
Gu1    g:--6---6---6------6-|
 left  d:-------------------|
       a:-------------------|
       e:-------------------|

Gu2 plays these chords, either as a note or a chord:

 E | G#m | A | C#m |

 For the C#m Gu2 plays:

       e:---------------|
       b:-55------------|
Gu2    g:-6--6-4--------|
 right d:-6------6-4----|
       a:-4----------4--|
       e:---------------|

_____________________________________________________________
Riff 4

Both guitars play:

 e:--------------------------------|x 3  then the chord
 b:--------------------------------|	| B5 | A |
 g:--9-9-9---6-6-6---8-8-8---4-4-4-|
 d:--------------------------------|
 a:--7-7-7---4-4-4---6-6-6---2-2-2-|
 e:--------------------------------|


_____________________________________________________________
Riff 5

Chords:

 E | G#m | A | then:

 e:-------------------|
 b:-------------------|
 g:--9-9-9---8-8-8----|
 d:-------------------|
 a:--7-7-7---6-6-6----|
 e:-------------------|

____________________________________________________________
then repeat Riff 2

____________________________________________________
Riff 6

Gu2 plays the same it was playing in Riff 3

and Gu1 plays:

 e:-------------|-------------|-------5-----|-----4-------|x2
 b:--5----------|-5-4---------|-----5-------|---4---4---4-|
 g:-----6-------|-----4-------|-5h6---------|-4-------4---|
 d:-------------|-------------|-------------|-------------|
 a:-------------|-------------|-------------|-------------|
 e:-------------|-------------|-------------|-------------|



Important: The song above is NOT stored on the Chordie server. The original song is hosted at www.xguitar.com. Chordie works as a search engine and provides on-the-fly formatting. Chordie does not index songs against artists'/composers' will. To remove this song please click here.

This song is displayed as text-only. Transposing and tuning is only available for chordpro-songs.

Login - add to songbook

Rating click stars to rate

Layout
Accuracy

SHARE PAGE  




You need to log in to post comments