Guitar Tabs, Chords and Lyrics


Invalid Litter Dept.   At The Drive-In



(C) At the Drive-in - Invalid Litter Dept.
Relationship Of Command

Transribed by Steve G(Splinter)

http://website.lineone.net/~anthony.gravell
Dropped-D Tuning
Not really necessary for gu2(Omar)

Intro

Use a delay pedal to create a delayed effect when not fretting things properly.
E.g. Lay your first finger across the fret board at fret 11 or another high fret
but do not fret the strings mute them as if you were doing natural harmonics.
You can then then mess round with your guitar to create different sounds.

On my Boss-DD5 Delay pedal I set it as follows:
Level = So that the delay volumn is the same as you original volumn
Feedback = about middle to 3/4
D.Time = Middle
Option set to 3 which is 200ms-800ms.  This makes the D.Time at middle to be 
around 500ms.

_____________________________________________________
 Gu1
 Continue the above for 2 progressions of Gu2's riff below then play:

 Gu1 Clean Sound(Jim)
     e:----------------|----------------|----------------|---------|
     b:-------10-----8-|-------7----8---|-------5------3-|---------|
 Gu1 g:---7------7-----|--7-------7-----|---3------3-----|---------|
     d:-9---9------9---|----9-----------|-5---5------5---|---------|
     a:----------------|----------------|----------------|---------|
     D:----------------|----------------|----------------|---------|

 Gu2 Crunchy and Very Sustainy With the Delay effect above still on(Omar)
     e:----------------|----------------|----------------|---------|
     b:-------10-------|----------------|-------5--------|---------|
 Gu2 g:---7------------|----------------|---3------------|---------|
     d:-9---9----------|----------------|-5---5----------|---------|
     a:----------------|----------------|----------------|---------|
     D:----------------|----------------|----------------|---------|

________________________________________________________________
Verses

 Gu1 Clean Sound(Jim)
     e:------------------------|------------------------|
     b:------------------------|------------------------|
 Gu1 g:------------------------|------------------------|
     d:--------7--------7------|--------7--------7--9-7-|
     a:---7h8h9----7h8h9---9-7-|---7h8h9----7h8h9-------|
     D:-0--------0-------------|-0--------0-------------|

 Gu2 Crunchy/Tinny(Omar) play all the notes really short(sticcato)
					   or however you spell it
     e:------------------------|------------------------|
     b:--------T---------7-----|------------------------|
 Gu2 g:-7--------9---------9p7-|-7------7h9p7-------7---|
     d:------------------------|----------------9-------|
     a:------------------------|------------------------|
     D:------------------------|------------------------|

Gu1 in the gap bits in the verses plays with a slide and goes from
fret 11 to fret 16.  (Dancing on the corpses ashes) while gu2 continues with he same

_______________________________________________________________________

 Gu1 Overdriven and crunchy(Jim)
     e:-------------------|--------------------|-----------------|-----------------|
     b:-------------------|--------------------|-----------------|-----------------|
 Gu1 g:-------------------|--------------------|-----------------|-----------------|
     d:-0-9-12-0-9-12-0-9-|-12-0-9-12-0-9-12-0-|-5-5-5-5-5-5-5-5-|-4-4-4-4-7-7-7-7-|
     a:-0-9-12-0-9-12-0-9-|-12-0-9-12-0-9-12-0-|-5-5-5-5-5-5-5-5-|-4-4-4-4-7-7-7-7-|
     D:-0-9-12-0-9-12-0-9-|-12-0-9-12-0-9-12-0-|-5-5-5-5-5-5-5-5-|-4-4-4-4-7-7-7-7-|

 Gu2 Put that delay effect back on
     e:---------------1515|1515151515-141414---|-----------------|-----------------|
     b:-------------------|------------------15|-1515151515151515|1515151515-------|
 Gu2 g:-99999977777777----|--------------------|-----------------|-----------------|
     d:-------------------|--------------------|-----------------|-----------------|
     a:-------------------|--------------------|-----------------|-----------------|
     D:-------------------|--------------------|-----------------|-----------------|

_____________________________________________________________________

end on a B5 chord then the Cedric or Jim only Dancing on the corpses ashes

__________________________________________________________________________

     e:-------------------|-------------------|--------------------|--------------------|
     b:-------------------|-------------------|--------------------|--------------------|
 Gu1 g:-------------------|-------------------|--------------------|--------------------|
     d:-999979--79-9-79-7-|-555545--45-5-45-4-|-2------------------|-5------------------|
     a:-999979--79-9-79-7-|-555545--45-5-45-4-|-2------------------|-5------------------|
     D:-999979--79-9-79-7-|-555545--45-5-45-4-|-2------------------|-5------------------|
						  I haven't put the rythem on for the above
						  last 2 chords.

 Gu2 Put that delay effect back on for the second 2 bars
     e:-------------------|-------------------|--------------------|--------------------|
     b:-------------------|-------------------|--------10--7-------|--------10--7----87-|
 Gu2 g:-Same as above-----|-------------------|----7----7----------|----7----7----7-7--7|
     d:-------------------|-------------------|-9----9---9---------|-9----9---9----9----|
     a:-------------------|-------------------|--------------------|--------------------|
     D:-------------------|-------------------|--------------------|--------------------|

 Gu2 Plays the below instead after the singing stops:

     e:------7b-------7b--|-----7b-------7b---|--------------------|--------------------|
     b:---10-7b----T--7b--|-----7b-------7b---|--------10--7-------|--------10--7----87-|
 Gu2 g:--7--------7-------|-------------------|----7----7----------|----7----7----7-7--7|
     d:-9--9-----9--9-----|-------------------|-9----9---9---------|-9----9---9----9----|
     a:-------------------|-5--------5--------|--------------------|--------------------|
     D:-------------------|-------------------|--------------------|--------------------|
     The 7s that are bent above should be bent up and back

____________________________________________________________________________

end on a b5 Chord
=====
At The Drive In - Invalid Letter Department
Guitar Right Channel
Tabbed By Zakko!

Before you start, keep this in mind.  Form chords at the intro part so 
your fingers aren’t going all over the place.  Let the notes ring out 
for as long as possible.

Intro - Omar takes his pick and taps it above the neck pickup and does 
a lot of pick scrapes.  He also uses a porcelain slide to do “bird calls.”  
Use lots of delay.
               Harm.
E--x--x--x--x--12--x--x--x--x------------------------------------------
B----------------------------------------------------------------------
G----------------------------------------------------------------------
D----------------------------------------------------------------------
A----------------------------------------------------------------------
E----------------------------------------------------------------------

Then the piano, played by the other guitarist, comes in with the B minor, 
G, D, and G chords.

Intro .20 seconds.  The second guitarist goes to his guitar and plays this.  
Omar plays the exact same thing except he slides the last notes down to nothing 
and adds pick     scrapes.  He uses a slide as well.  With chorus and delay. 
E----------------------------------------------------------------------
B--------10------------------------------------------------------------
G----7---------------9-------------------------------------------------
D--9---9--------8------------------------------------------------------
A------------10---10---------------------------------------------------
E----------------------------------------------------------------------

.36 seconds.
E----------------------------------------------------------------------
B--------10---8---7---8-------------------------10---8---7---8---------
G----7---------------------------9----7-----7--------------------------
D--9---9----9---9---9-------8-------------9---9----9---9---9-----------
A------------------------10---10---10----------------------------------
E----------------------------------------------------------------------

E---------------------
B---------------------
G----------9-99999999-
D-----8---------------
A--10---10------------
E---------------------

Verse .53 seconds.  Cool little lick with lots of slides.  
DO NOT USE SLIDE! Play 2x’s.
E---------------------------------------
B---------------------------------------
G---------------------------------------
D--0-4/7--0-4/7--4-2--0-4/7--0-4/7--9-7-
A---------------------------------------
E---------------------------------------

Slide fill by Omar.  USE SLIDE (No way in hell he uses a slide in concert.  
They just omit this part.)  1.00 Minutes
E--------------------------
B-7/12---------------------
G--------------------------
D--------------------------
A--------------------------
E--------------------------

“Dancing on the Corpses Ashes” part.  1.01 Minutes
E----------------------------------
B----------------------------------
G----7---7---7---7---7---7---7---7-
D--9---9---9---9---9---9---9---9---
A----------------------------------
E----------------------------------

Verse 1.04 Minutes.  Now play the verse 2x’s.

“Ashes” part.  1.11 Minutes.

Verse 1.16 Minutes.  Verse 2 more times.

“Dancing on the Corpses Ashes” part.  1.24 Minutes with Distortion.                      
Pm----------------||--Harmonics--|
E----------------------------------
B----------------------------------
G----7---7---7---7---9---9---9---9-
D--9---9---9---9---9---9---9---9---
A----------------------------------
E----------------------------------

Chorus 1.27 Minutes.  Play 2x’s.  Omar’s part.  You can do two things play this, 
what I call the “triple octave,” or just play the two notes on the A and G strings 
and hit an octave pedal that is set for one octave above.
E-12/-10\15-/14--33-22-33-22-33-2-3----------------------------------
B--x--x--x---x---33-33-33-33-33-3-3----------------------------------
G--9-/7-\12-/11--00-00-00-00-00-0-0----------------------------------
D--x-/x-\x--/x---00-00-00-00-00-0-0--------------------------------------------
A--7-/5-\10-/9-------------------------------------------------------
E--------------------------------------------------------------------

Chorus 1.27 Minutes.  Play 2x’s.  The other guitarist’s part.
E----------------------------------------------------------------------
B----------------------------------------------------------------------
G--7-7-7-7-7-7-7-7-7-7-----------------2222----------------------------
D--7-7-7-7-7-7-7-7-7-7--5555-5555-4444-2222----------------------------
A--4-5-4-5-4-5-4-5-4-5--5555-5555-4444-0000----------------------------
E-----------------------3333-3333-2222---------------------------------

Intro 1.43 Minutes
E----------------------
B--------10------------
G----7---------------9-
D--9---9--------8------
A------------10---10---
E----------------------

1.59 Minutes.  Verse 2x’s.

2.06 Minutes.  “Ashes” part.

2.11 Minutes.  Verse 2x’s.

2.19 Minutes.  “Ashes” part.

2.23 Minutes.  Verse 2x’s.

2.31 Minutes.  Distorted “Ashes” part.

2.34 Minutes.  Chorus 4x’s.

3.06 Minutes.  Bridge.  The piano and guitar “solo.”  There’s the other 
guitar doing something with heavy reverb, delay, and flanging.  
He might even be manipulating a volume pedal in there somewhere too.

3.37 Minutes.  Verse 2x’s.

3.45 Minutes.  “Ashes” part.

3.49 Minutes.  Verse 2x’s.

3.57 Minutes.  “Ashes” part.

4.00 Minutes.  Verse 2x’s.

4.08 Minutes.  Distorted “Ashes” part.

4.12 Minutes.  Chorus 3x’s then
                         Dancing on the corpses ashes...dancing on the corpses ashes.
E----------------------------------------------------------------------
B----------------------------------------------------------------------
G--7-7-7-7-7-7-7-7-7-7---4---------------------------------------------
D--7-7-7-7-7-7-7-7-7-7---4---------------------------------------------
A--4-5-4-5-4-5-4-5-4-5---2---------------------------------------------
E----------------------------------------------------------------------

4.49 Minutes.  Hardcore Breakdown part.  Omar’s part. 3x’s. 
E----------------------------------------------------------------------
B----------------------------------------------10-7~-----10-7-8-7------
G--4444-2-4-2-44-2-4-------------------------7---------7---------7-----
D--4444-2-4-2-44-2-4-4-5555-4-5-4-55-4-5---9---------9-----------------
A--2222-0-2-0-22-0-2-4-5555-4-5-4-55-4-5-------------------------------
E--------------------2-3333-2-3-2-33-2-3-------------------------------

4.49 Minutes.  Other guitarist’s part.   Upstroke next to bridge.  5x’s.
E------------------------------------------0---------------------------
B------------------------------------------0---------------------------
G--4444-2-4-2-44-2-4-----------------------0---------------------------
D--4444-2-4-2-44-2-4--4-5555-4-5-4-55-4-5--2-----------55555555--------
A--2222-0-2-0-22-0-2--4-5555-4-5-4-55-4-5--2-----------55555555--------
E---------------------2-3333-2-3-2-33-2-3--0-----------33333333--------

End On 

G--4~~~~------------
D--4~~~~------------
A--2~~~~------------
E-------------------


Important: The song above is NOT stored on the Chordie server. The original song is hosted at www.xguitar.com. Chordie works as a search engine and provides on-the-fly formatting. Chordie does not index songs against artists'/composers' will. To remove this song please click here.

This song is displayed as text-only. Transposing and tuning is only available for chordpro-songs.

Login - add to songbook

Rating click stars to rate

Layout
Accuracy

SHARE PAGE  




You need to log in to post comments