Guitar Tabs, Chords and Lyrics


Quarantined   At The Drive-In



Song : Quarantined
Artist : At The Drive-In
Tabbed by : Joel Crabtree
Email : joel_1982@hotmail.com 

 INTRO:
 delay effect/chorus/echo
|-19--------17--------15-------17-|
|-17--------15--------13-------15-|
|---------------------------------|
|---------------------------------|
|---------------------------------|
|---------------------------------|

 VERSE:
|-20-------19-------19-------19-------19-17-------17-------17-------17-------17-------17----------|
|----20-17----20-17----20-17----20-17-------17\15----17-15----17-15----17-15----17-15----15-15/17-|
|-------------------------------------------------------------------------------------------------|
|-------------------------------------------------------------------------------------------------|
|-------------------------------------------------------------------------------------------------|
|-------------------------------------------------------------------------------------------------|
 CHORUS:
|--------------------------------------------------------------------|
|--------------------------------------------------------------------|
|-14br--14--12~~--14br--14--12~~\11--11--11--11/12--11--9--9--9-9-9--|
|--------------------------------------------------------------------|
|-12br--12--10~~--12br--12--10~~\9---9---9---9-/10--9---7--7--7-7-7--|
|--------------------------------------------------------------------|
 during bass solo
|--14----------10----------7----------------|
|-------------------------------------------|
|-------------------------------------------|
|-------------------------------------------|
|-------------------------------------------|
|-------------------------------------------|
i am almost finished tabbing guitar 2, when its done i will send it in.

if anyone wants me to tab out any other songs send me an e-mail and i'll see what i can do.



Important: The song above is NOT stored on the Chordie server. The original song is hosted at www.xguitar.com. Chordie works as a search engine and provides on-the-fly formatting. Chordie does not index songs against artists'/composers' will. To remove this song please click here.

This song is displayed as text-only. Transposing and tuning is only available for chordpro-songs.

Login - add to songbook

Rating click stars to rate

Layout
Accuracy

SHARE PAGE  




You need to log in to post comments