Guitar Tabs, Chords and Lyrics


Sleepwalk Capsules   At The Drive-In



Artist: At The Drive-In
Song: Sleepwalk Capsules
Album: Relationship Of Command
Tabbed By: Shelby Hohl (SH00)
This is a pretty simple song to learn there's a couple of tricky
fingerings here and there but nothing too Steve Vai-ish.
On The Parts where it's just barre chords I've just give the
chords and you can figure out the timing.

Guitar 1
Verse 1 & 2

  D#add9     A#6
E-15-15---15-15-15---15------------------------------------------
B-15-15---15-15-15---15-14-14-14-14-14-12-12-12-12-14-14-14-14-14
G-0--0-----0--0--0------0--14-14-14-14-14-14-14-14-14-14-14-14-14-14
D-14-14--14-0--0------0-------------------------------------------
A-15-15--15-14-14----14------------------------------------------
E-----------15-15-----15------------------------------------------

E----------
B-15-15-15-
G-14-14-14-
D----------
A----------
E----------

Guitar 2
Verse 1 & 2

  Cadd9 Gadd9

        S
E-3-3--3/10-10-
B-0-0--0/10-10-
G-0-0--0/0--0--
D-2-2--2/9--9--
A-3-3--3/10-10-
E--------------
From what I can just about make out in the muddy mix harmonics
are played up and down the neck after these chords

Chorus
Guitar 1

                        C
E------2-2---------3-------------------
B----------3---------5-----------------
G---4------------5-----5-5-5-5-5-5-5-5
D-2------------5-------5-5-5-5-5-5-5-5
A------------3----------3-3-3-3-3-3-3-3
E------------------------3-3-3-3-3-3-3-3

Guitar 2

  Em  Asus4   C
E-----------------
B-------------5---
G-0-----6-----5---
D-2-----6-----5---
A-2-----5-----3---
E-0-----5-----3---

At the end of each chorus bars both guitars play:

    Bend
E----------
B----------
G-4-(5)-4-0
D----------
A----------
E----------
Bridge - Part 1

  A   E   G   G/F#
E-0---0---0---0---
B-2---0---0---0---
G-2---0---0---0---
D-2---2---0---0---
A-0---2---2---2---
E-0---0---3---2---

Play around with these chords and a lot of flange, echo and wah
to recreate the CD and use the whammy bar often on the E's.

Bridge - Part 2

E--------------------
B--------------------
G--------------------
D--------------------
A--------------------
E-6-5-3-6-2--6-5-3-10-

Apply a lot of Vibrato to the final D note.

Final Verse Both Guitars play the same but after each chord adds:

E-15--
B---15
G-----
D-----
A-----
E-----

End On E
=====
-------------------
A At The Drive-In A
----------------------
T Sleepwalk Capsules T
---------------------------
D Relationship Of Command D
-----------------------------------
I Tabbed By Stu 'Esdeyen' Newnham I
-----------------------------------

This is a pretty simple song to learn there's a couple of tricky
fingerings here and there but nothing too Steve Vai-ish.
On The Parts where it's just barre chords I've just give the
chords and you can figure out the timing.

Guitar 1
Verse 1 & 2

  D#add9     A#6
E-15-15---15-15-15---15------------------------------------------
B-15-15---15-15-15---15-14-14-14-14-14-12-12-12-12-14-14-14-14-14
G-0--0----0--0--0----0--14-14-14-14-14-14-14-14-14-14-14-14-14-14
D-14-14---14-0--0----0-------------------------------------------
A-15-15---15-14-14---14------------------------------------------
E------------15-15---15------------------------------------------

E----------
B-15-15-15-
G-14-14-14-
D----------
A----------
E----------

Guitar 2
Verse 1 & 2

  Cadd9 Gadd9

        S
E-3-3--3/10-10-
B-0-0--0/10-10-
G-0-0--0/0--0--
D-2-2--2/9--9--
A-3-3--3/10-10-
E--------------
From what I can just about make out in the muddy mix harmonics
are played up and down the neck after these chords

Chorus
Guitar 1

                        C
E------2-2---------3-------------------
B----------3---------5-----------------
G---4------------5------5-5-5-5-5-5-5-5
D-2------------5--------5-5-5-5-5-5-5-5
A------------3----------3-3-3-3-3-3-3-3
E-----------------------3-3-3-3-3-3-3-3

Guitar 2

  Em  Asus4   C
E-----------------
B-------------5---
G-0-----6-----5---
D-2-----6-----5---
A-2-----5-----3---
E-0-----5-----3---

At the end of each chorus bars both guitars play:

    Bend
E----------
B----------
G-4-(5)-4-0
D----------
A----------
E----------
Bridge - Part 1

  A   E   G   G/F#
E-0---0---0---0---
B-2---0---0---0---
G-2---0---0---0---
D-2---2---0---0---
A-0---2---2---2---
E-0---0---3---2---

Play around with these chords and a lot of flange, echo and wah
to recreate the CD and use the whammy bar often on the E's.

Bridge - Part 2

E--------------------
B--------------------
G--------------------
D--------------------
A--------------------
E-6-5-3-6-2--6-5-3-10-

Apply a lot of Vibrato to the final D note.

Final Verse Both Guitars play the same but after each chord adds:

E-15--
B---15
G-----
D-----
A-----
E-----

End On E

I know these aren't 100% correct but just have fun with them!
Any corrections please send to loconimrod@hotmail.com. ENJOY!


Important: The song above is NOT stored on the Chordie server. The original song is hosted at www.xguitar.com. Chordie works as a search engine and provides on-the-fly formatting. Chordie does not index songs against artists'/composers' will. To remove this song please click here.

This song is displayed as text-only. Transposing and tuning is only available for chordpro-songs.

Login - add to songbook

Rating click stars to rate

Layout
Accuracy

SHARE PAGE  




You need to log in to post comments