Guitar Tabs, Chords and Lyrics


Nausea    At The Gates



At The Gates - Nausea.

.  - palm mute
~  - vibrato
\  - slide to
h  - hammer on
b  - bend
p  - pull off
*  - see comment
(*2) - see another comment


TUNING: B (every string down 2.5 steps)




 RIFF 1 (intro)
 guitar 1 starts alone and plays one time
 guitar 1 = 6 times
 guitar 2 = 5 times
|------------------------------|
|------------------------------|
|----------------------------1-|GTR 1&2
|-*-*-*-*-(*2)*-*------------1-|
|-0-0-0-0-310-0-0-310310-0-0---|
|------------------------------|
                         . .
  * - 2 strokes on each of these notes
 (*2) - (these notes are 3's,1's and 0's all the way
	 throughout the riff on the a-string)


 RIFF 2 - Play two times
|------------------------------|
|------------------------------|
|------------------------------|GTR 1&2
|----------------------------1-|
|-----------------(*2)-------1-|
|-0-0-0-0-3-1-0-0-310310-0-0---|
  . . . .     . .        . .

 (*2) - (these notes are 3's,1's and 0's all the way
	 throughout the riff on the e-string)




PLAY RIFF 1 four times
PLAY RIFF 2 two times



 RIFF 3 (chorus) play two times
|-------------------------------------------------|
|-------------------------------------------------|GTR 1
|-------------------------------------------------|
|-5-----5-----------------5-----5-----------------|
|-------------9-----9-----------------9-----9---7-|
|---7-0---7-0---8-5---8-5---7-0---7-0---8-5---7---|
|
|
|
|-------------------------------------------------|
|-------------------------------------------------|GTR 2
|-9-----------5-----------------------------4-----|
|-------------------------5-----------4-----------|
|-7-----------3-----------------------------2-----|
|-0-----------------------3-----------2-----------|




PLAY RIFF 2 four times (guitar 1 plays all four times,
			guitar 2 plays 1,2 and 4)

PLAY RIFF 1 four times
PLAY RIFF 2 two times
PLAY RIFF 3 two times


 RIFF 4 - play two times
|------------------------------------------------------------------|
|------------------------------------------------------------------|
|------------------------------------------------------------------|GTR 1&2
|-2-----2-----2---1-----1-----1---2-----2-----2--------------------|
|-2-----2-----2---1-----1-----1---2-----2-----2---------2-2\1-5~---|
|---0-0---0-0---0---0-0---0-0---0---0-0---0-0---0-0-2-3------------|
    . .   . .   .   . .   . .   .   . .   . .   .

|------------------------------------------------------------------|
|------------------------------------------------------------------|
|------------------------------------------------------------------|GTR 1&2
|-2-----2-----2---1-----1-----1---2-----2-----2---------------1----|
|-2-----2-----2---1-----1-----1---2-----2-----2---------------1----|
|---0-0---0-0---0---0-0---0-0---0---0-0---0-0---0-3~--0---3-2------|
    . .   . .   .   . .   . .   .   . .   . .   .     .   . .



 RIFF 5a (SOLORIFF) - 2:nd guitar - play two times
|------------------------------------------------------------------|
|------------------------------------------------------------------|
|------------------------------------------------------------------|GTR 2
|------------------------------------------------------------------|
|-----------------2-2-2-2------------------------------------------|
|-1-1-1-1-1-1-3-3---------3-3-2-2-0-0-0-0-0-0-3-3-0-0-0-0-0-0-3-3--|
  . . . . . . . . . . . . . . . . . . . . . . . . . . . . . . . .




 RIFF 5b (SOLORIFF) - 2:nd guitar - play two times
|------------------------------------------------------------------|
|------------------------------------------------------------------|
|------------------------------------------------------------------|GTR 2
|------------------------------------------------------------------|
|-----------------22222222-----------------------------------------|
|-1111111111113333--------3333222200000000000033330000000000003333-|
  ................................................................




/// SOLO - guitar 1 (written down very slow, so you can follow)
    during 5a
|----------------------------------------------|
|-13-0-12-0-10-0-12-0-13-0-12-0-13-0-15-0-17~--|
|:---------------------------------------------|GTR 1
|:---------------------------------------------|
|----------------------------------------------|
|----------------------------------------------|

 cont. during 5a                                 during 5b
|----------------------------------------------|-22~\\/|
|--------------------------------------17~-----|-*-----|
|-----------------------------16----16--------:|-------| GTR 1
|----------------14----14--17----17-----------:|-------|
|-------14----14----14-------------------------|-------|
|-13-15----15----------------------------------|-------|

						 * tremolo mayhem (ring out)
end solo ///



PLAY RIFF 3 two times
PLAY RIFF 4 three times

 but the last time end with:
|-------------------------------------------------------------------|
|-------------------------------------------------------------------|
|--------------------------------------------------------3----------|GTR 1&2
|-2-----2-----2---1-----1-----1---2-----2-----2----5--4--3--5--4--2-|
|-2-----2-----2---1-----1-----1---2-----2-----2----5--4--1--5--4--2-|
|---0-0---0-0---0---0-0---0-0---0---0-0---0-0---0--3--2-----3--2--0-|
    . .   . .   .   . .   . .   .   . .   . .   .



Important: The song above is NOT stored on the Chordie server. The original song is hosted at www.xguitar.com. Chordie works as a search engine and provides on-the-fly formatting. Chordie does not index songs against artists'/composers' will. To remove this song please click here.

This song is displayed as text-only. Transposing and tuning is only available for chordpro-songs.

Login - add to songbook

Rating click stars to rate

Layout
Accuracy

SHARE PAGE  




You need to log in to post comments