Chordie logo

Take Me Back    Ataris



------------------------------------------------------------------------------
			 Take Me Back - The Ataris
-------------------------------------------------------------------------------

By: Ken(anik@eagle.ca)
   Daniel Cardoza(DCsnow32@yahoo.com)

* = Palm Mute
~ = Let Ring

Intro

 1st Guitar
e|-7---7-6---6-7---7-6---6-7---7-6---6-7---7-99999999-------|
B|---7-----7-----7-----7-----7-----7-----7---99999999-------|
G|----------------------------------------------------------|
D|----------------------------------------------------------|
A|----------------------------------------------------------|
E|----------------------------------------------------------|

 2nd Guitar (Strum)
e|----------------------------------------------------------|
B|----------------------------------------------------------|
G|-------8-----9-----------------8-----9-----11-11-11--7-7--|
D|-9-----8-----9-----4-----9-----8-----9-----11-11-11--7-7--|
A|-9-----6-----7-----4-----9-----6-----7-----9--9--9---9-9--|
E|-7-----------------2-----7--------------------------------|


Verse

 Both Guitars
e|------------------------------------------------------------------------------|
B|------------------------------------------------------------------------------|
G|----------8-888888-9-999999-------------------8-888888-9-999999--11-11-11-999-|
D|-9-999999-8-888888-9-999999-4-444444-9-999999-8-888888-9-999999--11-11-11-999-|
A|-9-999999-6-666666-7-777777-4-444444-9-999999-6-666666-7-777777---9--9--9-777-|
E|-7-777777-------------------2-222222-7-777777---------------------------------|
    *****    *****    *****    **       *****    *****    *****

 Both Guitars
e|------------------------------------------------------------------------------|
B|------------------------------------------------------------------------------|
G|----------8-888888-9-999999-------------------8-888888-9-999999--11-11-11-999-|
D|-9-999999-8-888888-9-999999-4-444444-9-999999-8-888888-9-999999--11-11-11-999-|
A|-9-999999-6-666666-7-777777-4-444444-9-999999-6-666666-7-777777---9--9--9-777-|
E|-7-777777-------------------2-222222-7-777777---------------------------------|

Chorus

 Both Guitars
e|------------------------------------------------------------|
B|------------------------------------------------------------|
G|------------------------------------------------------------|
D|-666-44-222-44-6-66-4-44-2-22-4-44-666-44-222-33-4-4444444~-|
A|-666-44-222-44-6-66-4-44-2-22-4-44-666-44-222-33-4-4444444~-|
E|-444-22-000-22-4-44-2-22-0-00-2-22-444-22-000-11-2-2222222~-|


Repeat Intro

 1st Guitar
e|-7---7-6---6-7---7-6---6-7---7-6---6-7---7-99999999-------|
B|---7-----7-----7-----7-----7-----7-----7---99999999-------|
G|----------------------------------------------------------|
D|----------------------------------------------------------|
A|----------------------------------------------------------|
E|----------------------------------------------------------|

 2nd Guitar (Strum)
e|----------------------------------------------------------|
B|----------------------------------------------------------|
G|-------8-----9-----------------8-----9-----11-11-11--7-7--|
D|-9-----8-----9-----4-----9-----8-----9-----11-11-11--7-7--|
A|-9-----6-----7-----4-----9-----6-----7-----9--9--9---9-9--|
E|-7-----------------2-----7--------------------------------|


Second Verse

 Both Guitars
e|------------------------------------------------------------------------------|
B|------------------------------------------------------------------------------|
G|----------8-888888-9-999999-------------------8-888888-9-999999--11-11-11-999-|
D|-9-999999-8-888888-9-999999-4-444444-9-999999-8-888888-9-999999--11-11-11-999-|
A|-9-999999-6-666666-7-777777-4-444444-9-999999-6-666666-7-777777---9--9--9-777-|
E|-7-777777-------------------2-222222-7-777777---------------------------------|
    *****    *****    *****    **       *****    *****    *****

 Both Guitars
e|------------------------------------------------------------------------------|
B|------------------------------------------------------------------------------|
G|----------8-888888-9-999999-------------------8-888888-9-999999--11-11-11-99--|
D|-9-999999-8-888888-9-999999-4-444444-9-999999-8-888888-9-999999--11-11-11-99--|
A|-9-999999-6-666666-7-777777-4-444444-9-999999-6-666666-7-777777---9--9--9-77--|
E|-7-777777-------------------2-222222-7-777777---------------------------------|


Chorus

 Both Guitars

e|------------------------------------------------------------|
B|------------------------------------------------------------|
G|------------------------------------------------------------|
D|-666-44-222-44-6-66-4-44-2-22-4-44-666-44-222-33-4-4444444~-|
A|-666-44-222-44-6-66-4-44-2-22-4-44-666-44-222-33-4-4444444~-|
E|-444-22-000-22-4-44-2-22-0-00-2-22-444-22-000-11-2-2222222~-|


Ending

 Both Guitars
e|--------------------x2------------------------|
B|----------------------------------------------|
G|---------------------9-99-99-1111111111111111-|
D|-9999-8888-6666-4444-9-99-99-1111111111111111-|
A|-9999-8888-6666-4444-7-77-77--9-9-9-9-9-9-9-9-|
E|-7777-6666-4444-2222--------------------------|

e|--------------------x2------------------------|
B|----------------------------------------------|
G|---------------------9-99-99-1111111111111111-|
D|-9999-8888-6666-4444-9-99-99-1111111111111111-|
A|-9999-8888-6666-4444-7-77-77--9-9-9-9-9-9-9-9-|
E|-7777-6666-4444-2222--------------------------|
  **   **   **   **
e|----------|
B|----------|
G|----------|
D|-9~----99-|
A|-9~----99-|
E|-7~----77-|

Send questions and/or comments to Wrath_uv_ken@hotmail.com



Important: The song above is NOT stored on the Chordie server. The original song is hosted at www.xguitar.com. Chordie works as a search engine and provides on-the-fly formatting. Chordie does not index songs against artists/composers will. To remove this song please click here.

This song is displayed as text-only. Transposing and tuning is only available for chordpro-songs.

Login - add to songbook

Rating click stars to rate

Layout
Accuracy

SHARE PAGE  



You need to log in to post comments