Hello and Goodbye

Ataris

 GCadd9
e|---------3-3-----3-------3-3--------3-------------3-3-3----3---3-----------|
B|---------3-3-----3-------3-3--------3-------------3-3-3----3---3-----------|
G|---------0-0-----0-------0-0--------0-------------0-0-0----0---0-----------|
D|---------0-0-------------0-0----------------------0-0-0----2---------------|
A|---------2-2-------------2-2-----2----------------2-2-2----3---------------|
E|---------3-3-------------3-3-----3----------------3-3-3--------------------|

So long my friend don't say goodbye just give me one last kiss

 DG
e|-3-3-3-3-3------------3----------------------------------3-----------------|
B|-3-3-3-3-3------------2----------------------------------3-----------------|
G|-0-0-0-0-0------------3----------------------------------0-----------------|
D|-2-2-2-2-2------------0----------------------------------0-----------------|
A|-3-3-3-3-3------------0----------------------------------2-----------------|
E|---------------------------------------------------------3-----------------|

Beneith this glowing sky. We'll go walking through the park and hang out

 AmCD
e|--------0-------------------------------0--------------------------3-------|
B|--------1-------------------------------1--------------------------2-------|
G|--------2-------------------------------0--------------------------3-------|
D|--------2-------------------------------2--------------------------0-------|
A|--------0-------------------------------3--------------------------0-------|
E|---------------------------------------------------------------------------|

in the rain. Make a joke and watch me smile as we drink away the day.

Chorus:
 GG/F#CAmEm7
e|-----3------------------3---------------0-----------0------------3---------|
B|-----3------------------3---------------1-----------1------------3---------|
G|-----0------------------0---------------0-----------2------------0---------|
D|-----0------------------0---------------2-----------2------------2---------|
A|-----2------------------0---------------3-----------0------------2---------|
E|-----3------------------2----------------------------------------0---------|

And know the next time that you make a wish upon a star I'll be wishing on

G/F# Cadd9 Cm7(not positive about the name for this chord)
e|----3-----------------3------3---------------------------------------------|
B|----3-----------------3------0---------------------------------------------|
G|----0-----------------0------3---------------------------------------------|
D|----0-----------------2------2---------------------------------------------|
A|----0-----------------3------3---------------------------------------------|
E|----2----------------------------------------------------------------------|

the same one that you do

 GG/F#CAmEm7
e|-----3---------------3-----------------0-----------------0------------3----|
B|-----3---------------3-----------------1-----------------1------------3----|
G|-----0---------------0-----------------0-----------------2------------0----|
D|-----0---------------0-----------------2-----------------2------------2----|
A|-----2---------------0-----------------3-----------------0------------2----|
E|-----3---------------2------------------------------------------------0----|

And every night I'm all alone in some burnt-out highway town I'll be think

 G/F#Cadd9
e|----------3--------------3-------------------------------------------------|
B|----------3--------------3-------------------------------------------------|
G|----------0--------------0-------------------------------------------------|
D|----------0--------------2-------------------------------------------------|
A|----------0--------------3-------------------------------------------------|
E|----------2----------------------------------------------------------------|

ing of the day that I met you

Verse 2:
Hello again, it's been too long
What's happened to our love since the last time I was gone?
I detached myself again and lose something everytime
The solution's in the problem temporarily alright

Chorus 2:
And know the next time that you make a wish upon a star
that sometimes it might actually come true
Our conversation can't consist of hello and goodbye
and the silence between saying "I love you"

Outro:
e|-----0-----------0-----------------3~---3-3-3-3-3--3~---------------------|
B|-----1-----------1-----------------3~---3-3-3-3-3--3~---------------------|
G|-----2-----------0-----------------0~---0-0-0-0-0--0~---------------------|
D|-----2-----------2-----------------2~---2-0-2-0-2--0~---------------------|
A|-----0-----------3-----------------3~---3-2-0-2-3--2~---------------------|
E|---------------------------------------------------3~---------------------|

and sometimes I wonder about that too.


Am C Cadd9 D Em7 G G/F#
variations - click chord images
Transpose chords:
Tuning:
Cool service:
View: Size:
A  A  A
Rating:
Layout:
  • Currently 2.9/5 Stars.
  • 1
  • 2
  • 3
  • 4
  • 5
 
Accuracy:
  • Currently 3.8/5 Stars.
  • 1
  • 2
  • 3
  • 4
  • 5
 
click stars to rate
Chordie recommends:
Get acoustic guitar lessons and electric guitar lessons at JamPlay.com
Songbook:
Login to add this song to your songbook
Support the artist
Preview/buy this song
MSN Music
Why this non-profit ad?

 
login to add comments/video/corrections