Guitar Tabs, Chords and Lyrics


P.S. The Scene Is Dead    Ataris



-------------------------------------------------------------------------------
P.S. THE SCENE IS DEAD - the Ataris
-------------------------------------------------------------------------------

By:Yasushi; le991030@cie.aichi-pu.ac.jp
(Please e-mail me if you figure out what Kris screams!)

"do you know what it's like to live somewhere that sucks?
and everyone tries to bring you down.
no place for you to go and see a punk rock show.
and spend your whole life trying to get out."
e|-----------------------|
B|-----------------------|
G|--7-----3--------------|
D|--7-----3-----3-----7--|x2 and then, pick slide
A|--5-----1-----3-----7--|
E|--------------1-----5--|

"???" (i just wonder what does Kris scream?)
e|------------------| |--------------|
B|------------------| |-[fret slide]-|
G|-------------8/7--| |--------------|
D|--5-----8/7--8/7--|x3 |----5>>>------|
A|--5-----8/7--6/5--| |----5>>>------|


Important: The song above is NOT stored on the Chordie server. The original song is hosted at www.xguitar.com. Chordie works as a search engine and provides on-the-fly formatting. Chordie does not index songs against artists'/composers' will. To remove this song please click here.

This song is displayed as text-only. Transposing and tuning is only available for chordpro-songs.

Login - add to songbook

Rating click stars to rate

Layout
Accuracy

SHARE PAGE  




You need to log in to post comments