Guitar Tabs, Chords and Lyrics


The Boys of Summer    Ataris



================================================================================
                        The Boys Of Summer - The Ataris
================================================================================
By:A Mitch O'Neill (Tamachi_@hotmail.com)

PM - Plam mute
x - Mute notes
~ - Let ring

Intro
e|---------------------------------------------------------------------------|
B|---------------------------------------------------------------------------|
G|8~--------8~----------8-4~----------6~---------8-4~------------------------|
D|6~--------6~----------6-2~----------4~---------6-2~------------------------|
A|6~--------6~----------6-2~----------4~---------6-2~------------------------|
E|---------------------------------------------------------------------------|


Guitar 2 riff (Played thorughout)
e |----------------------------------------------------------------------------|
B |----7-6---------------------------------------------------------------------|
G |--------6-------------------------------------------------------------------|
D |----------------------------------------------------------------------------|
A |----------------------------------------------------------------------------|
E |----------------------------------------------------------------------------|


Verse
e |-----------------------------------------------------------------------------|
B |-----------------------------------------------------------------------------|
G |8888888888888888-4444444444444444-6666666666666666-4444444444444444----------|
D |8888888888888888-4444444444444444-6666666666666666-4444444444444444----------|
A |6666666666666666-2222222222222222-4444444444444444-2222222222222222----------|
E |-----------------------------------------------------------------------------|


Chorus (x2)
e |-----------------------------------------------------------------------------|
B |-----------------------------------------------------------------------------|
G |---------66666666-6-6666666-44444444-----------------------------------------|
D |44444444-66666666-6-6666666-44444444-----------------------------------------|
A |44444444-44444444-4-4444444-22222222-----------------------------------------|
E |22222222---------------------------------------------------------------------|


Bridge
e |-----------------------------------------------------------------------------|
B |-----------------------------------------------------------------------------|
G |8888888888888888-4444444444444444-6666666666666666-4444444444444444----------|
D |8888888888888888-4444444444444444-6666666666666666-4444444444444444----------|
A |6666666666666666-2222222222222222-4444444444444444-2222222222222222----------|
E |-----------------------------------------------------------------------------|


Verse 2
e |-----------------------------------------------------------------------------|
B |-----------------------------------------------------------------------------|
G |4-8~----------8-4~--------------4-6666666666666666-4444444444444444-444444---|
D |4-8~----------8-4~--------------4-6666666666666666-4444444444444444-444444---|
A |2-6~----------6-2~--------------2-4444444444444444-2222222222222222-222222---|
E |-----------------------------------------------------------------------------|

PM		                     .................................


Chorus (x2)
e |-------------------------------------|---------------------------------------|
B |-------------------------------------|---------------------------------------|
G |---------66666666-6-6666666-44444444-|4~------4~-------4-6~------------------|
D |44444444-66666666-6-6666666-44444444-|4~------4~-------4-6~------------------|
A |44444444-44444444-4-4444444-22222222-|2~------2~-------2-4~------------------|
E |22222222-----------------------------|---------------------------------------|


Interlude played in background (x2)
e |-----------------------------------------------------------------------------|
B |-----------------------------------------------------------------------------|
G |8888888888888888-4444444444444444-6666666666666666-4444444444444444----------|
D |8888888888888888-4444444444444444-6666666666666666-4444444444444444----------|
A |6666666666666666-2222222222222222-4444444444444444-2222222222222222----------|
E |-----------------------------------------------------------------------------|


Verse 3
e |-----------------------------------------------------------------------------|
B |-----------------------------------------------------------------------------|
G |4-8~--------------8-4~----------4-6666666666666666-4444444444444444-444444x--|
D |4-8~--------------8-4~----------4-6666666666666666-4444444444444444-444444x--|
A |2-6~--------------6-2~----------2-4444444444444444-2222222222222222-222222x--|
E |-----------------------------------------------------------------------------|

PM		                     .................................


Chorus (x4)
e |-------------------------------------|----------------------------------------|
B |-------------------------------------|----------------------------------------|
G |---------66666666-6-6666666-44444444-|4~--------6~--------6~--------4~--------|
D |44444444-66666666-6-6666666-44444444-|4~--------6~--------6~--------4~--------|
A |44444444-44444444-4-4444444-22222222-|2~--------4~--------4~--------2~--------|
E |22222222-----------------------------|----------------------------------------|



Ok all done and dusted. A really easy song to play and really fun too, I would
just like to point out that you can palm mute the second verse if you wanted to.
Any questions please email me. Enjoi!



Important: The song above is NOT stored on the Chordie server. The original song is hosted at www.xguitar.com. Chordie works as a search engine and provides on-the-fly formatting. Chordie does not index songs against artists/composers will. To remove this song please click here.

This song is displayed as text-only. Transposing and tuning is only available for chordpro-songs.

Login - add to songbook

Rating click stars to rate

Layout
Accuracy

SHARE PAGE  




You need to log in to post comments