Guitar Tabs, Chords and Lyrics


An Interlude    Atreyu



ATREYU
An Interlude
The Curse

Tabbed By: Sab HIMself



First Riff:

D----------------7-----|
A------7--------7-7----|
F----9---9--9--9---9---|
C---7-7---7---7-----7--|
G--9---------9---------|
C----------------------|

Second Riff: (I know this is wrong, but if you figure out the right way just correct it for me thanx)

D|----------------------------------------|
A|----------------10-9--------------------|
F|--------9--7---------9-7-6-6-6-6h7p6----|
C|---7---------------------------------7--|
G|-9---9--------9-------------------------|
C|----------------------------------------|

Third Riff:  This is 100% correct

D|-7-use -------7----|
A|-7-wammy bar---7---|Play this twice
F|-9-here---------9--|
C|-------------------|
G|-------------------|
C|-------------------|


Then back to the second riff



Important: The song above is NOT stored on the Chordie server. The original song is hosted at www.xguitar.com. Chordie works as a search engine and provides on-the-fly formatting. Chordie does not index songs against artists'/composers' will. To remove this song please click here.

This song is displayed as text-only. Transposing and tuning is only available for chordpro-songs.

Login - add to songbook

Rating click stars to rate

Layout
Accuracy

SHARE PAGE  




You need to log in to post comments