Guitar Tabs, Chords and Lyrics


At Least I Know I'm a Sinner    Atreyu



drop C Tuneing

b=bend
h=hammer on
p=pull off
~=ring out


intro
----------------------------------------------------------
----------------------------------------------------------
----------------------------------------------------------
----------------------------------------------------------
---5bp0-5p0--3p0--2p0----3--2--3---------------
--------5p0--3p0--2p0----3--2--3---7b~-------


----------------------------------------------------------     -------------------
----------------------------------------------------------     -------------------
----------------------------------------------------------     --10--9---5------
----------------------------------------------------------     ---x--x---x------
--5bp0---3bp0--5bp0--8bp0-7bp0--5bp0----------------------     ---8--7---3------
-------0-----0------0----0----0---------------------------     --------------------


----------
----------
----------
----------
--5bp0----
--------000000000000000 fast palm muting


verse

----------------------------------------------------------------------------
----------------------------------------------------------------------------
-----------------101010------------2-----------2h3p0-------------
-----------------101010---------3-----3----3------------3p0------
---000----333----8-8--8------55----------5--------------------------
---000----333----8-8--8-----------------------------------------------


chorus
----------------------------------------------------------
----------------------------------------------------------
----------------------------------------------------------
----------------10 10101010------------------
---55--555555---88-8888888--------------------
---55--555555---88-8888888--------------------



"Unclasp your hands"

----------------------------------------------------------
----------------------------------------------------------
----------------------------------------------------------
----------------------------------------------------------
---555--777-888--10-8-7--33333--1111--1-3-----------------
----------------------------------------------------------


freakin a

-----------------------------------------------------------------
-----------------------------------------------------------------
----------2p0----2-0--------------5555--66666----------
-----------------------3-2-0------xxxx--xxxx-----------
--000---------0---------------3---3333--44444----------
--000---------0-----------------------------------------------



end

Guitar 1
---------------------------------------
---------------------------------------
----------------------------------------
--1010----101010----------------
---8888---88888------------------     55
---8888---88888------------------     55



Guitar 2     Guitar 1       Guiar 2   Guitar 1      Guiar 2      Guitar 1
----------|---------------------------------------------------------------------
----------|---------------------------------------------------------------------
----------|-10-----------|----------|---10-------|--------------|----10----
----------|-10-----------|----------|---10-------|--------------|----10---
----5555--|--8-----------|---555----|---8--------|------55------|----8-----
----5555--|--8-----------|---555----|---8--------|------55------|----8-----


Guitar 1   Guitar 2  Guitar 1 Guitar 2 Guitar1  Guitar2 Guitar1
-------------------------------------------------------------------------
-------------------------------------------------------------------------
-101010--------------1010---|----------1010----|-------|10----
-101010--|--------|--1010---|------|---1010----|-------|10----
--88888--|----55--|---888---|---5--|----8-8----|---55--|-8------
--88888--|----55--|---888---|---5--|----8-8----|---55--|-8------


Guitar 1 and Guitar 2 at the same time
------------------------------------------------------------
------------------------------------------------------------
--10-------------------------------------------------------
--10--------------------------------------------------------
--8---------------5-------play lots of times--------
--8---------------5----------------------------------------


finish
Guitar 2 Guitar 1 Guitar 2
----------------------------------------------------------
----------------------------------------------------------
-----------10--------------------------------------------
-----------10--------------------------------------------
----55-----8--------55----------------------------------
----55-----8--------55------------------------------------




Important: The song above is NOT stored on the Chordie server. The original song is hosted at www.xguitar.com. Chordie works as a search engine and provides on-the-fly formatting. Chordie does not index songs against artists'/composers' will. To remove this song please click here.

This song is displayed as text-only. Transposing and tuning is only available for chordpro-songs.

Login - add to songbook

Rating click stars to rate

Layout
Accuracy

SHARE PAGE  




You need to log in to post comments