Guitar Tabs, Chords and Lyrics


I Am the Highway   Audioslave

[F]Pearls and [C]swine be[G]reft of [Am]me
[F]Long and [C]weary my [G]road has [Am]been
F C* G Am*
I was lost in the cities; Alone in the hills
F C* G Am*
No sorrow or pity for leaving I feel

Guitar 2
Play along with Guitar 1, punctuating the chords marked with an asterik (*)


-Chorus 1-
Guitar 1
   [C]I am [G]not your rolling [D]wheels; I am the [Am]highway
   [C]I am [G]not your carpet [D]ride; I am the [Am]sky

Guitar 2
I am not your rolling wheels; I am the highway
   [C]     [G]                 [D]                 [Am]                                                                                                                                                                                                                                                                                                                                                                                                                                                                                                
E-|0----0----------------2----------------0-------0------|

B-|1----3----------------3----------------1---------1----|
G-|0----0----------------2----------------2-----------2--|
D-|2----0----------------0----------------2--------------|
A-|3----2---------------------------------0--------------|
E-|0----3------------------------------------------------|
I am not your carpet ride; I am the sky
C G D Am*
E-|0----0---------------2--------------0--------|

B-|1----3---------------3--------------1--------|
G-|0----0---------------2--------------2--------|
D-|2----0---------------0--------------2--------|
A-|3----2------------------------------0--------|
E-|0----3---------------------------------------|

Guitars 1 And 2
Between Chorus 1 and Verse 2: Am


-Verse 2-
Guitar 1
[F]Friends and [C]liars don't [G]wait for [Am]me

[F]I'll get [C]on all [G]by my[Am]self

F C* G Am*
I put millions of miles; Under my heels

F C* G Am*
And still too close to you I feel

Guitar 2
Play along with Guitar 1, punctuating the chords marked with an asterik (*)


-Chorus 2-
Guitar 1
[C]I am [G]not your rolling [D]wheels; I am the [Am]highway
[C]I am [G]not your carpet [D]ride; I am the [Am]sky
[C]I am [G]not your blowing [D]wind; I am the [Am]lightning
[C]I am [G]not your autumn [D]moon; I am the [Am]night

Guitar 2
I am not your rolling wheels; I am the highway
C G* D Am
E-|0----0----------------2----------------0-------0------|

B-|1----3----------------3----------------1---------1----|
G-|0----0----------------2----------------2-----------2--|
D-|2----0----------------0----------------2--------------|
A-|3----2---------------------------------0--------------|
E-|0----3------------------------------------------------|
I am not your carpet ride; I am the sky
C G* D Am
E-|0----0----------------2----------------0-------0------|

B-|1----3----------------3----------------1---------1----|
G-|0----0----------------2----------------2-----------2--|
D-|2----0----------------0----------------2--------------|
A-|3----2---------------------------------0--------------|
E-|0----3------------------------------------------------|
I am not your blowing wind; I am the lightning
C G* D Am
E-|0----0----------------2----------------0-------0------|

B-|1----3----------------3----------------1---------1----|
G-|0----0----------------2----------------2-----------2--|
D-|2----0----------------0----------------2--------------|
A-|3----2---------------------------------0--------------|
E-|0----3------------------------------------------------|

I am not your autumn moon; I am the night
C G D Am*
E-|0----0---------------2--------------0--------|

B-|1----3---------------3--------------1--------|
G-|0----0---------------2--------------2--------|
D-|2----0---------------0--------------2--------|
A-|3----2------------------------------0--------|
E-|0----3---------------------------------------|

Between Chorus 2 and Solo: Am


-Solo-

Guitar 1
C-G-D-Am (Strummed at a constant rate, as opposed to rhythmically during the verse and chorus.)

Guitar 2
Coming Soon!


-Chorus 3-
Guitar 1
[C]I am [G]not your rolling [D]wheels; I am the [Am]highway
[C]I am [G]not your carpet [D]ride; I am the [Am]sky
[C]I am [G]not your blowing [D]wind; I am the [Am]lightning
[C]I am [G]not your autumn [D]moon; I am the [Am]night

Guitar 2
I am not your rolling wheels; I am the highway
C G* D Am
E-|0----0----------------2----------------0-------0------|

B-|1----3----------------3----------------1---------1----|
G-|0----0----------------2----------------2-----------2--|
D-|2----0----------------0----------------2--------------|
A-|3----2---------------------------------0--------------|
E-|0----3------------------------------------------------|
I am not your carpet ride; I am the sky
C G* D Am
E-|0----0----------------2----------------0-------0------|

B-|1----3----------------3----------------1---------1----|
G-|0----0----------------2----------------2-----------2--|
D-|2----0----------------0----------------2--------------|
A-|3----2---------------------------------0--------------|
E-|0----3------------------------------------------------|
I am not your blowing wind; I am the lightning
C G* D Am
E-|0----0----------------2----------------0-------0------|

B-|1----3----------------3----------------1---------1----|
G-|0----0----------------2----------------2-----------2--|
D-|2----0----------------0----------------2--------------|
A-|3----2---------------------------------0--------------|
E-|0----3------------------------------------------------|

I am not your autumn moon; I am the night
C G D Am*
E-|0----0---------------2--------------0--------|

B-|1----3---------------3--------------1--------|
G-|0----0---------------2--------------2--------|
D-|2----0---------------0--------------2--------|
A-|3----2------------------------------0--------|
E-|0----3---------------------------------------|


Outro: Am


Any comments, questions, death threats: Send to almostfamous413@hotmail.com

Important: The song above is NOT stored on the Chordie server. The original song is hosted at www.xguitar.com. Chordie works as a search engine and provides on-the-fly formatting. Chordie does not index songs against artists/composers will. To remove this song please click here.

Text color:
Chord color:
Chord grids: 
Font size:    
Page size: 

Am C D F G
variations - click chord images

Login - add to songbook

Transpose chords

Tuning

Rating click stars to rate

Layout
Accuracy

SHARE PAGE  




You need to log in to post comments

Darth Nihilus (report)

I was just thinking both of those comments before I got to the end - agree

Mink63 (report)

I agree with the Dm comment and think Emaj finishes the chorus.

deflprd2 (report)

I think the D should be a Dm