Chordie logo


Like a Stone    Audioslave



Audioslave - Like A Stone




INTRO
e|----------------------------|-------------------------------|
B|----------------------------|-------------------------------|
G|*---------------------------|------------------------------*|
D|*---------------------------|------------------13------12--*|
A|---13--------15-------------|--------12---------------------|
E|--------15--------13--------|--10---------11-------11-------|


VERSE (2 times)
e|----------------------------|-------------------------------|
B|----------------------------|-------------------------------|
G|*---------------------------|------------------------------*|
D|*---------------------------|------------------13------12--*|
A|---13--------15-------------|--------12---------------------|
E|--------15--------13--------|--10---------11-------11-------|


CHORUS (let ring)
e|----------------------------|---------------------------|---------------------------|
B|----------------------------|---------------------------|---------------------------|
G|*---------3----------------*|--8------------------------|--8-------------5------5---|
D|*--5------3------3------5--*|--8------5------3------5---|--8------5------7------7---|
A|---5------1------3------5---|--6------5------3------5---|--6------5------5------5---|
E|---3------1------1------3---|--6------3------1------3---|--6------3------5------5---|


VERSE (5 times)
e|---------------------------|-------------------------------|
B|---------------------------|-------------------------------|
G|---------------------------|-------------------------------|
D|---------------------------|------------------13------12---|
A|--13--------15-------------|--------12---------------------|
E|-------15--------13--------|--10---------11-------11-------|


CHORUS (let ring)
e|-------------------------|-----------------------|-----------------------------------|
B|-------------------------|-----------------------|-----------------------------------|
G|*--------3--------------*|--8--------------------|--8-----------5-----5-----5-----5--|
D|*--5-----3-----3-----5--*|--8-----5-----3-----5--|--8-----5-----7-----7-----7-----7--|
A|---5-----1-----3-----5---|--6-----5-----3-----5--|--6-----5-----5-----5-----5-----5--|
E|---3-----1-----1-----3---|--6-----3-----1-----3--|--6-----3-----5-----5-----5-----5--|


SOLO
e|----------------------------|------------------------------------------|
B|----------------------------|------------------------------------------|
G|----------------------------|------------------------------------------|
D|----------------------------|------------------------------------------|
A|--/10-----/12--/13----------|--/15----/13---/12-------/10~~~~~~~-------|
E|----------------------------|------------------------------------------|

e|-------------------------------|------------------------------------|
B|-------------------------------|------------------------------------|
G|-------------------------------|------------------------------------|
D|-------------------------------|------------------------------------|
A|--/10------/12-----/8~~~~~~~~~~|--/13----/15----/17~~~~~~~~---------|
E|-------------------------------|------------------------------------|

e|---181818-171717-----------------|--181818-171717-----------------|
B|-----------------181818----------|----------------181818----------|
G|*-----------------------191919---|-----------------------191919--*|
D|*--------------------------------|-------------------------------*|
A|---------------------------------|--------------------------------|
E|---------------------------------|--------------------------------|

e|-----------------------------------------------------------------------|
B|-----------------------------------------------------------------------|
G|-----------------------------------------------------------------------|
D|-----------------------------------------------------------------------|
A|-----------------------------------------------------------------------|
E|--/3--/5--/6--/8--/10--/11--/13--/15--/17--/18--/17--/18--/17~~~~~~~---|


BRIDGE (acoustic)
e|----------------------------------|----------------------------------|
B|----------------------------------|----------------------------------|
G|--8--8-8--8-8-8-------------------|--7--7-7--7-7-7---8--8-8--8-8-8---|
D|--8--8-8--8-8-8---8--8-8--8-8-8---|--7--7-7--7-7-7---8--8-8--8-8-8---|
A|--6--6-6--6-6-6---8--8-8--8-8-8---|--5--5-5--5-5-5---6--6-6--6-6-6---|
E|--6--6-6--6-6-6---6--6-6--6-6-6---|--5--5-5--5-5-5---6--6-6--6-6-6---|

e|--6--6-6--6-6-6---3--3-3--3-3-3---|--5--5-5--5-5-5---3--3-3--3-3-3---|
B|--7--7-7--7-7-7---5--5-5--5-5-5---|--7--7-7--7-7-7---3--3-3--3-3-3---|
G|--8--8-8--8-8-8---3--3-3--3-3-3---|--7--7-7--7-7-7---3--3-3--3-3-3---|
D|--8--8-8--8-8-8---5--5-5--5-5-5---|--7--7-7--7-7-7---5--5-5--5-5-5---|
A|--6--6-6--6-6-6---3--3-3--3-3-3---|--5--5-5--5-5-5---5--5-5--5-5-5---|
E|----------------------------------|--5--5-5--5-5-5---3--3-3--3-3-3---|

e|----------------------------------|----------------------------------|
B|----------------------------------|----------------------------------|
G|--8--8-8--8-8-8-------------------|--7--7-7--7-7-7---8--8-8--8-8-8---|
D|--8--8-8--8-8-8---8--8-8--8-8-8---|--7--7-7--7-7-7---8--8-8--8-8-8---|
A|--6--6-6--6-6-6---8--8-8--8-8-8---|--5--5-5--5-5-5---6--6-6--6-6-6---|
E|--6--6-6--6-6-6---6--6-6--6-6-6---|--5--5-5--5-5-5---6--6-6--6-6-6---|

                                     (elec.)
                                       P.M._____________________________
e|--6--6-6--6-6-6---3--3-3--3-3-3---|--------------------------------------|
B|--7--7-7--7-7-7---5--5-5--5-5-5---|--------------------------------------|
G|--8--8-8--8-8-8---3--3-3--3-3-3---|--7-7-7-7-7-7-7-7---7-7-7-7-7-7-7-7---|
D|--8--8-8--8-8-8---5--5-5--5-5-5---|--7-7-7-7-7-7-7-7---7-7-7-7-7-7-7-7---|
A|--6--6-6--6-6-6---3--3-3--3-3-3---|--5-5-5-5-5-5-5-5---5-5-5-5-5-5-5-5---|
E|----------------------------------|--5-5-5-5-5-5-5-5---5-5-5-5-5-5-5-5---|


CHORUS/ENDING (let ring)
e|-------------------------|-----------------------|-----------------------------------|------|
B|-------------------------|-----------------------|-----------------------------------|--4---|
G|*--------3--------------*|--8--------------------|--8-----------5-----5-----5-----5--|--0---|
D|*--5-----3-----3-----5--*|--8-----5-----3-----5--|--8-----5-----7-----7-----7-----7--|--5---|
A|---5-----1-----3-----5---|--6-----5-----3-----5--|--6-----5-----5-----5-----5-----5--|--6---|
E|---3-----1-----1-----3---|--6-----3-----1-----3--|--6-----3-----5-----5-----5-----5--|--6---|



Important: The song above is NOT stored on the Chordie server. The original song is hosted at www.xguitar.com. Chordie works as a search engine and provides on-the-fly formatting. Chordie does not index songs against artists/composers will. To remove this song please click here.

This song is displayed as text-only. Transposing and tuning is only available for chordpro-songs.

Login - add to songbook

Rating click stars to rate

Layout
Accuracy

SHARE PAGE  




You need to log in to post comments