Chordie logo

Heaven's Dead    Audioslave



Heaven's Dead
By Audioslave
From Out of Exile
Drop D Tuning

I'm gonna say right now that i dont't think the Interlude/Breakdown is right
Anyone who thinks they have it right, please post it as a correction,
or email me at cja8@comcast.net

Key:
^ means hammer on or pull off, depending on the starting and finishing note,
  you can figure it out
* is my symbol for a harmonic, theres only one, in the solo, so watch for it

Intro/Verse:

E|--------------------------------------------------------|
B|--------------------------------------------------------|
G|--------------------------------------------------------|
D|------------------------------------------------0--0--0-|
A|9-9-9-10-10-10-7-7-7-9-9-9-5-5-5-7-7-7------------------|
D|-0-0-0--0--0--0-0-0-0-0-0-0-0-0-0-0-0-0-9-11-12--12-12--|
  Anchor the night....
  Pray for me not....
  Shipwreck the sun....
  And whisper your songs....

Chorus:
  G        A         G
E|-----------------------------------------|
B|-----------------------------------------|        the first two chords
G|-----------------------------------------|        here can be strumed
D|5-5-5-5--7-7-7-7---5---------------------|        like on the cd, i only
A|5-5-5-5--7-7-7-7---5---------------------|        put the quarter notes
D|5-5-5-5--7-7-7-7---5---------------------|
  Heaven's Dead....

on the second and last time the chorus is played,
its the first pair G A chords from above
played twice, then it goes into the normal chorus

Interlude/Breakdown:

E|--------------------------------------|
B|--------------------------------------|
G|----------------------------------5-7-|
D|12--7--5-4-0-2--4-0-----------5-7-----|
A|12--7--5-4-0-2--4-0-------3^5---------|
D|12--7--5-4-0-2--4-0-------------------|
  For the best times you've had....


Solo:
E|---------------------------------------------------------------------|
B|--15-----------------------------------------------------------------|
G|------14-12^11----------------------14----14^12^11^12^11--11-12^11---|
D|12--12--------12---14^14^14^12----12--12----------------14-----------|
A|------------------------------12-------------------------------------|
D|---------------------------------------------------------------------|
  the best time youve had.....

        *
E|------12----------------------------|
B|---------15-------------------------|
G|---14-------------------------------|
D|12----------------------------------|
A|------------------------------------|
D|------------------------------------|




Important: The song above is NOT stored on the Chordie server. The original song is hosted at www.xguitar.com. Chordie works as a search engine and provides on-the-fly formatting. Chordie does not index songs against artists/composers will. To remove this song please click here.

This song is displayed as text-only. Transposing and tuning is only available for chordpro-songs.

Login - add to songbook

Rating click stars to rate

Layout
Accuracy

SHARE PAGE  

You need to log in to post comments