Guitar Tabs, Chords and Lyrics


Yesterday to Tomorrow    Audioslave



Song: Yesterday to Tomorrow
Artist: Audioslave
Album: Out of Exile
Tabbed by: lespualson


Ok.the intro isn't 100% for sure cause i just pretty much made
it up. but for all those people out there that arent creative. use this
	

Verse 1 x4	          w/tremolo
E|--------0------0-----0-----0-|
B|-----------------------------|
G|------------------4------2---|
D|-----7------7----------------|
A|---7------7-----5-----3------|
E|-5------5-----3-----1--------|

Chorus	    x3       x1
E|---------|----------|--------|
B|---------|----------|--------|
G|---2-0---|---0----0-|--------|
D|-------2-|----------|--------|
A|-0-------|-3----2---|-3----2-|
E|---------|----------|--------|

Post Chorus	       x2
E|-----------------------|
B|-----------------------|
G|------5/4/2------5/4/7-|
D|-----------------------|
A|-0-----------0---------|
E|-----------------------|

Verse 2 x2               w/tremolo
E|--------0------0-----0-----0-|
B|-----------------------------|
G|------------------4------2---|
D|-----7------7----------------|
A|---7------7-----5-----3------|
E|-5------5-----3-----1--------|

Chorus
E|---------|----------|--------|
B|---------|----------|--------|
G|---2-0---|---0----0-|--------|
D|-------2-|----------|--------|
A|-0-------|-3----2---|-3------|
E|---------|----------|------3-|

Bridge		     x2
E|---1------0---|------0-----0----0----|---------------|
B|----1------0--|-----1-----0------1---|---------------|
G|-----2------1-|--2-----4----------0--|-7--4--5--5--7-|
D|-3------2-----|--2-----4------2----2-|-7--4--5--5--7-|
A|-3------2-----|--0-----2------3------|-5--2--3--3--5-|
E|-1------0-----|----------------------|---------------|

Presolo	               slight delay
E|-x-x-|-----------------------------------|
B|-x-x-|-8/10--10/12--12/13----13/15----17-|
G|-x-x-|-----------------------------------|
D|-x-x-|-5/7----7/9----9/10----10/12----14-|
A|-x-x-|-----------------------------------|
E|-x-x-|-----------------------------------|

Solo	up 1 octave on whammy w/slight delay
E|-------------------------|-------------------------------|
B|-------------------------|----------------------13-12----|
G|-14-14-14-14-12----12-14-|-14-14-14-14-12----12-------14-|
D|----------------14-------|----------------14-------------|
A|-------------------------|-------------------------------|
E|-------------------------|-------------------------------|

E|-----------------------------------------------------------------|
B|--------------------------15-13-12-15-13-12-15-13-12-13-12-13----|
G|-14-14-14-14-12----12-14--------------------------------------14-|
D|----------------14-----------------------------------------------|
A|-----------------------------------------------------------------|
E|-----------------------------------------------------------------|

E|---------------------------------12----10-------------|
B|---------------------------10-12----12----13-12-13-10-|
G|-14-14-14-14-12----12-14------------------------------|
D|----------------14------------------------------------|
A|------------------------------------------------------|
E|------------------------------------------------------|

E|----------15-13-12----------------------------------12--------------------|
B|-------------------15-13-12----------------12-13-15----15-13-12-----------|
G|-14-14-12-------------------14-13-12-13-14----------------------14-12-14--|
D|--------------------------------------------------------------------------|
A|--------------------------------------------------------------------------|
E|--------------------------------------------------------------------------|

Chorus
E|---------|----------|--------|
B|---------|----------|--------|
G|---2-0---|---0----0-|--------|
D|-------2-|----------|--------|
A|-0-------|-3----2---|-3------|
E|---------|----------|------3-|

Outro	     x2
E|-----------------------|
B|-----------------------|
G|------5/4/2------5/4/7-|
D|-----------------------|
A|-0-----------0---------|
E|-----------------------|

Slow Strum
E|-0-|
B|-1-|
G|-2-|
D|-2-|
A|-0-|


Important: The song above is NOT stored on the Chordie server. The original song is hosted at www.xguitar.com. Chordie works as a search engine and provides on-the-fly formatting. Chordie does not index songs against artists/composers will. To remove this song please click here.

This song is displayed as text-only. Transposing and tuning is only available for chordpro-songs.

Login - add to songbook

Rating click stars to rate

Layout
Accuracy

SHARE PAGE  




You need to log in to post comments