Chordie logo


Your Time Has Come    Audioslave



WRONG TABS ALL OVER THE PLACE!!! AHH i decided to fix this thing up..
I added some corrections thanx to some emails...added solo as well..
so send me the corrections, if any, to creepingdeath1125@yahoo.com.

Intro
e|--------------------------------------------------------------------|
b|-------------------------------------------------8------------------|
g|-9-7-9-7-9-7-------------------------------7-7-9---9-7-7------------|
d|-------------9-7-9-7-9-7-9-7---------7-7-9----------------9-7-7-10\\-|
a|-----------------------------10-7-10--------------------------------|
E|--------------------------------------------------------------------|
Main Riff/Verses
e|----------------------------------|
b|----------------------------------|
g|----------------------------------|
d|----------------------------------|	
a|--7-5----------5/7--5-------------|
E|------7-5-3-0---------7-5-3-0-3/5-|

Main riff x3
Verse 1   x8

Chorus 1 - *Tom plays these major chords: G, D, A, then Em
If you want a heavier sound, play the ones that are tabbed out
e|-----------------|-----------|
b|-----------------|-----------|
g|-----7---------9-|-----7-----|
d|-5---7---7---2-7-|-5---7---7-|
a|-5---5---7---2-7-|-5---5---7-|
E|-3-------5---0---|-3-------5-|

Main riff x2
Verse 2   x8

Chorus 2    [x3]       [..4th time]
e|------------------|------------|
b|------------------|------------|
g|-----7----------9-|-----7------|
d|-5---7----7---2-7-|-5---7---7--|
a|-5---5----7---2-7-|-5---5---7--|
E|-3--------5---0---|-3-------5--|

Main riff x2

Solo - Took some time and a taped performance to figure this one out....its not exactly
what he does in the song...i saw him do it live and on tape... He uses delay, the toggle switch
(just toggle with the beat), and he hammers-on the notes hard...its sounds like its alot of picking
...its just delay and toggle...so use good judgement

e|----------------------|    |---------------------------------------------------|
b|----------------------|    |-------------12-----------------------14-----------|
g|-------21----------21-|    |-------12----------12-----------14----------14-----|
d|-------------21-------|    |---------------------------------------------------|
a|--19------19----19----|    |--10------10----10----10---12------12----12----12--|
E|----------------------|x8  |---------------------------------------------------|

e|----------------------------------------------------------------------------------------------------|
b|-------------16-----------------------12-----------------------14-----------------------17----------|
g|-------16----------16-----------12----------12-----------14----------14-----------17----------17----|
d|----------------------------------------------------------------------------------------------------|
a|--14------14----14----14---10------10----10----10---12------12----12----12---15------15----15----15-|
E|----------------------------------------------------------------------------------------------------|

e|------------------|
b|------------------|
g|------------------|*End with going down the penatonic scale
d|------------------| Tom does it different live so just do your best....
a|------------------|
E|------------------|

Main Riff x4

Riff 2 (low part) x3
e|--------2---------------|  |------------------|
b|--------3--2------------|  |------------------|
g|--------2--2------------|  |-----7-7--7-7-7-7-|
d|--2--0-----2-------2----|  |-----7-7--7-7-7-7-|
a|--2--2--------5-5--2----|  |-----5-5--5-5-5-5-|
E|--0--3--------3-3--0----|  |-0-3--------------|

 *During the riff 2\'s 3rd time, you can play this:
e|---0----------3-----------2----------------| |------0--------3-------2--2--2-2-2-2---|
b|------0----------0-----------3-------------| |--------0--------0-----3--3--3-3-3-3---|
g|---------0----------0-----------2----------| |----------0--------0---2--2--2-2-2-2---|
d|-------------------------------------------| |-(2)-------------------0--0--0-0-0-0---|
a|------------------------------------5-5--2-| |-(2)-----------------------------------|
E|------------------------------------3-3--0-| |-(0)-----------------------------------|

Chorus 2- 3rd and 4th time through chorus, play these as harmonics:
           The *\'s are more clearer to play
e|-/7-----*-----------------|
b|----7---7-*---------------|
g|----------7-----------*---|
d|----------------------7-*-|
a|-----------------5------7-|
E|--------------/5---5------| X2

Ending
e|---------------------------------|
b|---------------------------------|
g|---------------------------------|
d|---------------------------------|
a|--7-5------------/7-5------------|
E|------7-5-3-0---------7-5-3-0-5--|X3

e|------------------------------------|
b|------------------------------------|
g|------------------------------------|
d|---------------------------------2~~|
a|--7-5------------/7-5------------2~~|
E|------7-5-3-0---------7-5-3-0-5--0~~|

NOTE: This is just the tabs to this song. Improv. with this song as u learn it, because


Important: The song above is NOT stored on the Chordie server. The original song is hosted at www.xguitar.com. Chordie works as a search engine and provides on-the-fly formatting. Chordie does not index songs against artists/composers will. To remove this song please click here.

This song is displayed as text-only. Transposing and tuning is only available for chordpro-songs.

Login - add to songbook

Rating click stars to rate

Layout
Accuracy

SHARE PAGE  




You need to log in to post comments