Chordie logo

Service for a Vacant Coffin    Autopsy



_________________________________________________________________________________________
-AUTOPSY - SERVICE FOR A VACANT COFFIN from the "Severed Survival" CD (c) 1990 Peaceville
-Transcribed by Chris Myhre. Version 1.1b June 2002 (ver 1.1 Oct 2000)
-Email: bowel_ripper@hotmail.com - Website: http://home.no.net/bowelrip
-For best print edit the left/right margins in page setup to make the tab fit the sheet
-Tuning: 1.75 steps down (somewhere between C and C#)
-Notation legend: h = hammer-on; p = pull-off; . = palm mute; / = slide up;
                  ^ = semitone trill; * = see note; " = tremolopick

1>|------'gtr 1 x1--------------------------------------------* trill 2nd/3rd time only-------
2>|------'gtr 2 x3----------------------------------------------------------------------------
3>|(bass)'------------------------------------------------------------*-----------------------
4>|------'------------------------------------------------3-----------2-----------------------
5>|------'2-----------------------2-----------1-----------------------------------2-----------
6>|------'0-----------1-----------------------------------------------------------------------
                                                                      ^

 ------------------| |gtr 1 2nd/3rd time------------------------------------------------------
 ------------------| |------------------------------------------------------------------------
 ------------------| |------------------------------------------------5-----------4-----------
 ------------------| |------------------------4-----------3-----------------------------------
 1---2-1-----3-----| |2-----------3-----------------------------------------------------------
 ------------1-----| |------------------------------------------------------------------------
                                                                                  ^

 --------------------------------------------------------------------------------------------
 --------------------------------------------------------------------------------------------
 ------------3---4-3-----------------------------------------------------------10------------
 4-----------------------------------------------------9-----------8-------------------------
 ------------------------3-----7-----------8-------------------------------------------------
 ------------------------1-------------------------------------------------------------------

 -------------------------------------------| |riff A------------------------------------------
 -------------------------------------------| |gtr 1 & 2---------------------------------------
 9------------------------------------------| |------------------------------------------------
 ------------9------------------------------| |------------------------------------------------
 ------------------------8---9-8-----3------| |2-----------2---2-----------3-5-3-----------3---
 ------------------------------------1------| |0-----------0---0-----------1-3-1-----------1---
 ^                                                                          /

 ---------------x2--riff B-----------------------x6------|-----x4-----x1-----x1--riff C--------
 ----------------|--------------------------------|------|------|------|------'----------------
 ----------------|--------------------------------|repeat|repeat|repeat|repeat'----------------
 ----------------|--------------------------------|riff A|riff B|riff A|riff B'----------------
 6---6---6---6---|------------------------4-3-----|------|------|------|------'----------------
 4---4---4---4---|0-----------1-4-3-----------3-4-|------|------|------|------'0-----------1-4-
                  "           " " "            h                               "           " "

 --------'------------------------_______x2------------------------------------------------
 --------'-----------------------|  1     |------------------------------------------------
 --------'--------------------------------|------------------------------------------------
 --------'--------------------------------|------------------------------------------------
 --------'4-3-----3-2-----2-1-------------|2-----2-2---6---5-----5-5---9---8-----8-8---6---
 3-------'----3-4-----2-3-----1-2-0-1-3-4-|0-----0-0---4---3-----3-3---7---6-----6-6---4---
 "            . .     . .     . . . .  h

 ---------------x3_______________ _______ -----------------------x4--riff D----------------
 ----------------|   1, 2        | 3, 4  |------------------------|------------------------
 ----------------|------------------------------------------------|------------------------
 ----------------|------------------------------------------------|------------------------
 ------------3---|------------------------------------------------|------------------------
 3-----4-3---1---|0---------------0-------1-------6-7-6-4-6-4-3-4-|3-------4-------7-------
        p         "               "       "                        "       "       "

 _______ _______x4---------------------------------------------------------------x2------|
| 1, 3  | 2, 4   |----------------------------------------------------------------|------|
 ----------------|----------------4-------3-----------------------3-------2-------|repeat|
 ----------------|2-----------4-5-----------------1-----------3-4-----------------|riff D|
 ------------5-6-|----------------------------------------------------------------|------|
 6-------6-------|----------------------------------------------------------------|------|
 "       "    h   "               "       "       "               "       "


|-------x4------'------|          FIRST:                                  x2  * 1st time only
|--------'------'------|      5>|6---5-------5---9---8-----------6---5-----|
|repeat--'repeat'------|          THEN:      *                                      FILL 1
|riff B--'riff C'------|      4>|6---5-----------9---8-----------6---5-----6-5---|  (gtr 3)
|(w/lead)'------'2-----|      5>|------------------------------------------------|


Important: The song above is NOT stored on the Chordie server. The original song is hosted at www.xguitar.com. Chordie works as a search engine and provides on-the-fly formatting. Chordie does not index songs against artists/composers will. To remove this song please click here.

This song is displayed as text-only. Transposing and tuning is only available for chordpro-songs.

Login - add to songbook

Rating click stars to rate

Layout
Accuracy

SHARE PAGE  

You need to log in to post comments