Guitar Tabs, Chords and Lyrics


Burn It Down    Avenged Sevenfold



Author/Artist: Avenged Sevenfold
Title: Burn It Down
Album: City of Evil

Intro
------------------------------------------------------------------------------
------------------------------------------------------------------------------
------------------------------------------------------------------------------
------------------------------------------------------------------------------
------------------------------------------------------------------------------
-000-00000-000-000-00000-000-000-00000-000-000-00000-000-000------------------

Intro part 2/ post chorus interlude
------------------------------------------------------------------------------
------------------------------------------------------------------------------
-5-5-5-------------------5-5-5------------------------------------------------
-5-5-5-5-5-5-3-3-3-5-5-5-5-5-5-5-5-5-3-3-3-5-5-5-3-3-3-5-5-5-7-7-7--------10--
-3-3-3-5-5-5-3-3-3-5-5-5-3-3-3-5-5-5-3-3-3-5-5-5-3-3-3-5-5-5-7-7-7-101010-10--
-------5-5-5-3-3-3-5-5-5-------5-5-5-3-3-3-5-5-5-3-3-3-5-5-5-7-7-7-9-9-9--10--

                              Verse
----------------------------|-------------------------------------------------
----------------------------|-------------------------------------------------
----------------------------|-------------------------------------------------
-10-10-14-14-14-7-7-7-5-5-5-|-2-----3-----2-----5-----2-----3-----------------
-10-10-14-14-14-7-7-7-5-5-5-|-0-000-1-111-0-000-3-333-0-000-1-111-00000000----
-10-10-14-14-14-7-7-7-5-5-5-|-------------------------------------------------

Chorus
------------------------------------------------------------------------------
------------------------------------------------------------------------------
-7-7-7-7-7-7-7-------------------------------------7-7-7------7---------6-----
-7-7-7-7-7-7-7-7-7-7-7-7-7-7-5-5-5-5-5-5-5-7-7-7-7-7-7-7------x---------x-----
-5-5-5-5-5-5-5-4-4-4-4-4-4-4-5-5-5-5-5-5-5-4-4-4-4-5-5-5------5---------4-----
-----------------------------5-5-5-5-5-5-5---------------0000---00-0000---00--


-------------------|----------------------------------------------------------
-------------------|----------------------------------------------------------
------9----------7-|-7-7-7-7-5-5-5-3-3-3-3-3-3-3-3-7-7-7-7-5-5-5-3-3-3-3-3----
------x----------x-|-7-7-7-7-5-5-5-3-3-3-3-3-3-3-3-7-7-7-7-5-5-5-3-3-3-3-3----
------7----------5-|-5-5-5-5-3-3-3-1-1-1-1-1-1-1-1-5-5-5-5-3-3-3-1-1-1-1-1----
-0000----00-0000---|----------------------------------------------------------

                   Interlude 1 (then play verse once and then go directly into post chorus intelrude)
-----------------|------------------------------------------------------------
-----------------|------------------------------------------------------------
-----------------|------------------------------------------------------------
-----------------|------------------------------------------------------------
-----------------|-000-0-0-0-0------------------------------------------------
-000-0-0-000-0-0-|-000-0-0-0-0-0-5b-0-8b--------------------------------------

Chorus part 2 for second chorus "i cant trust anyone Witness and see it in my eyes"
------------------------------------------------------------------------------
------------------------------------------------------------------------------
-7-7-7-7-5-5-5-3-3-3-3-3-3-3-3-7-7-7-7-1010101010101012-----------------------
-7-7-7-7-5-5-5-3-3-3-3-3-3-3-3-7-7-7-7-1010101010101012-8-8-7-7-7-7-7-7-7-7---
-5-5-5-5-3-3-3-1-1-1-1-1-1-1-1-5-5-5-5-7-7-7-8-8-8-8-10-8-8-7-7-7-7-7-7-7-7---
--------------------------------------------------------8-8-7-7-7-7-7-7-7-7---

More little interludey parts
--------------------------------|---------------------------------------------
--------------------------------|---------------------------------------------
--------------------------------|---------------------------------------------
-000-0-0-0----------------------|---------------------------------------------
-000-0-0-0----------------------|-000-0-0-0-0-0----0--------------------------
-000-0-0-0-5b-5b-5b-5b-5b-5b-5b-|-000-0-0-0-0-0-5b-0-8b-----------------------

Bridge
------------------------------------------------------------------------------
------------------------------------------------------------------------------
------------------------------------------------------------------------------
-3-3-3-3-3-3-3-3-5-5-5-5-5-5-7-7-7-7-7-7-7-7-101010101010101010-10-10-10-10---
-3-3-3-3-3-3-3-3-5-5-5-5-5-5-7-7-7-7-7-7-7-7-101010101010101010-10-10-10-10---
-3-3-3-3-3-3-3-3-5-5-5-5-5-5-7-7-7-7-7-7-7-7-9-9-9-9-9-9-9-9-10-10-10-10-10---


------------------------------------------------------------------------------
------------------------------------------------------------------------------
------------------------------------------------------------------------------
-10-10-10-10-14-14-14-14-7-7-7-7-7-7-7-7-5-5-5-5-5-5-5-5----------------------
-10-10-10-10-14-14-14-14-7-7-7-7-7-7-7-7-5-5-5-5-5-5-5-5----------------------
-10-10-10-10-14-14-14-14-7-7-7-7-7-7-7-7-5-5-5-5-5-5-5-5----------------------

Ending
------------------------------------------------------------------------------
------------------------------------------------------------------------------
---------------2-2-2-3-3-3-3-7-7-7-5-5-5-5-2-2-3------------------------------
-5-5-5-3-3-3-3-2-2-2-3-3-3-3-7-7-7-5-5-5-5-2-2-3------------------------------
-5-5-5-3-3-3-3-0-0-0-1-1-1-1-5-5-5-3-3-3-3-0-0-1------------------------------


Important: The song above is NOT stored on the Chordie server. The original song is hosted at www.xguitar.com. Chordie works as a search engine and provides on-the-fly formatting. Chordie does not index songs against artists'/composers' will. To remove this song please click here.

This song is displayed as text-only. Transposing and tuning is only available for chordpro-songs.

Login - add to songbook

Rating click stars to rate

Layout
Accuracy

SHARE PAGE  




You need to log in to post comments