Guitar Tabs, Chords and Lyrics


Breaking Their Hold    Avenged Sevenfold



E||-------------------|------------------|-------------------|
B||-------------------|------------------|-------------------|
G||-------------------|------------------|-------------------|
D||-------------------|------------------|-------------------|
A||--0----------------|------------------|--0----------------|
D||--4----------------|------------------|--4----------------|



----------------------------------------|
----------------------------------------|
----------------------------------------|
--15-14-13-12-11-10-9-8-7-6-5-4-3-2-1-0-|
--15-14-13-12-11-10-9-8-7-6-5-4-3-2-1-0-|
----------------------------------------|



------------------------------|------------------------------|
------------------------------|------------------------------|
--12--12----12--14--14----14--|--15--15----15--15--15----15--|
------------------------------|------------------------------|
--10--10----10--12--12----12--|--13--13----13--13--13----13--|
------------------------------|------------------------------|



------------------------------|------------------------------|
------------------------------|------------------------------|
--11--11----11--11--11----11--|--11--11----11--11--11----11--|
------------------------------|------------------------------|
--9---9-----9---9---9-----9---|--9---9-----9---9---9-----9---|
------------------------------|------------------------------|



------------------------------|------------------------------|
------------------------------|------------------------------|
--12--12----12--14--14----14--|--15--15----15--15--15----15--|
------------------------------|------------------------------|
--10--10----10--12--12----12--|--13--13----13--13--13----13--|
------------------------------|------------------------------|



------------------------------|------------------------------|
------------------------------|------------------------------|
--11--11----11--11--11----11--|--11--11----11--11--11----11--|
------------------------------|------------------------------|
--9---9-----9---9---9-----9---|--9---9-----9---9---9-----9---|
------------------------------|------------------------------|



------------------------------|------------------------------|
------------------------------|------------------------------|
--12--12----12--14--14----14--|--15--15----15--15--15----15--|
------------------------------|------------------------------|
--10--10----10--12--12----12--|--13--13----13--13--13----13--|
------------------------------|------------------------------|



------------------------------|------------------------------|
------------------------------|------------------------------|
--11--11----11--11--11----11--|--11--11----11--11--11----11--|
------------------------------|------------------------------|
--9---9-----9---9---9-----9---|--9---9-----9---9---9-----9---|
------------------------------|------------------------------|



------------------------------|------------------------------|
------------------------------|------------------------------|
--12--12----12--14--14----14--|--15--15----15--15--15----15--|
------------------------------|------------------------------|
--10--10----10--12--12----12--|--13--13----13--13--13----13--|
------------------------------|------------------------------|



------------------------------|------------------------------|
------------------------------|------------------------------|
--11--11----11--11--11----11--|--11--11----11--11--11----11--|
------------------------------|------------------------------|
--9---9-----9---9---9-----9---|--9---9-----9---9---9-----9---|
------------------------------|------------------------------|



--------------------------|--------------------------|
--------------------------|--------------------------|
--------------------------|--------------------------|
--------------------------|--------------------2--1--|
-----3--2-----2--1-----1--|-----3--2-----2--1--------|
--3--------3--------3-----|--3--------3--------------|



--------------------------|----------------------|
--------------------------|----------------------|
--------------------------|----------------------|
--------------------------|----------------------|
-----3--2-----2--1-----1--|------------3----2----|
--3--------3--------3-----|--3----2--------------|



--------------------------|--------------------------|
--------------------------|--------------------------|
--------------------------|--------------------------|
--------------------------|--------------------2--1--|
-----3--2-----2--1-----1--|-----3--2-----2--1--------|
--3--------3--------3-----|--3--------3--------------|



--------------------------|----------------------|
--------------------------|----------------------|
--------------------------|----------------------|
--------------------------|----------------------|
-----3--2-----2--1-----1--|------------3----2----|
--3--------3--------3-----|--3----2--------------|



----------------------|------------------|-----|
----------------------|------------------|-----|
------------3----2~---|------------------|--2--|
--3----2--------------|------------------|-----|
----------------------|------------------|-----|
----------------------|------------------|-----|



--------------------------|--------------------------|
--------------------------|--------------------------|
--------------------------|--------------------------|
--------------------------|--------------------2--1--|
-----3--2-----2--1-----1--|-----3--2-----2--1--------|
--3--------3--------3-----|--3--------3--------------|



--------------------------|----------------------|
--------------------------|----------------------|
--------------------------|----------------------|
--------------------------|----------------------|
-----3--2-----2--1-----1--|------------3----2----|
--3--------3--------3-----|--3----2--------------|



--------------------------|--------------------------|
--------------------------|--------------------------|
--------------------------|--------------------------|
--------------------------|--------------------2--1--|
-----3--2-----2--1-----1--|-----3--2-----2--1--------|
--3--------3--------3-----|--3--------3--------------|



--------------------------|----------------------|
--------------------------|----------------------|
--------------------------|----------------------|
--------------------------|----------------------|
-----3--2-----2--1-----1--|------------3----2----|
--3--------3--------3-----|--3----2--------------|



--------------------------|--------------------------|
--------------------------|--------------------------|
--------------------------|--------------------------|
--------------------------|--------------------2--1--|
-----3--2-----2--1-----1--|-----3--2-----2--1--------|
--3--------3--------3-----|--3--------3--------------|



--------------------------|----------------------|
--------------------------|----------------------|
--------------------------|----------------------|
--------------------------|----------------------|
-----3--2-----2--1-----1--|------------3----2----|
--3--------3--------3-----|--3----2--------------|



--------------------------|--------------------------|
--------------------------|--------------------------|
--------------------------|--------------------------|
--------------------------|--------------------2--1--|
-----3--2-----2--1-----1--|-----3--2-----2--1--------|
--3--------3--------3-----|--3--------3--------------|



--------------------------|----------------------|
--------------------------|----------------------|
--------------------------|----------------------|
--------------------------|----------------------|
-----3--2-----2--1-----1--|------------3----2----|
--3--------3--------3-----|--3----2--------------|



----------------------|----------------------|----------------------|
----------------------|----------------------|----------------------|
------------3----2----|----------------------|------------3----2----|
--3----2--------------|----------------------|--3----2--------------|
----------------------|------------3----2----|----------------------|
----------------------|--3----2--------------|----------------------|



----------------------|----------------------|----------------------|
----------------------|----------------------|----------------------|
----------------------|------------3----2----|----------------------|
----------------------|--3----2--------------|----------------------|
------------3----2----|----------------------|------------3----2----|
--3----2--------------|----------------------|--3----2--------------|



----------------------||
----------------------||
------------3----2----||
--3----2--------------||
----------------------||


Important: The song above is NOT stored on the Chordie server. The original song is hosted at www.xguitar.com. Chordie works as a search engine and provides on-the-fly formatting. Chordie does not index songs against artists'/composers' will. To remove this song please click here.

This song is displayed as text-only. Transposing and tuning is only available for chordpro-songs.

Login - add to songbook

Rating click stars to rate

Layout
Accuracy

SHARE PAGE  




You need to log in to post comments