Guitar Tabs, Chords and Lyrics


Lips of Deceit    Avenged Sevenfold



Avenged sevenfold – lips of deceit (intro only)
I got this from another tab but just re edited it down to the g and d string instead of g and e so you can put in that long slide at the beginning,  I made other changes to make it smoother

This is the sickest song

e----------------------------------------------------
b---------------------------------------10---
g-1/7--9-10-9--7-7-9--10-9-7----10--12--10---
d-1/7--7--7-7--7-8-8--8--8-8----10--10--------
a-----------------------------------------------------
E----------------------------------------------------


e-------------------------------------
b--------------5-------------------
g-12-10----5-7-5-7-5--------------
d-10-10----5-5---5-5--------------
a-------------------------------------
E------------------------------------




e----------------------------------------------------
b-------------------------------------10---
g-1/7--9-10-9--7-7-9--10-9-7--10--12--10---
d-1/7--7--7-7--7-8-8--8--8-8--10--10--------
a-----------------------------------------------------
E----------------------------------------------------


e------------------------------------------
b-----------------------------------------
g----------------------------------------
d-12-10--13-11-10-8-10-6-5---7---
a-10-10----------------------7---


Important: The song above is NOT stored on the Chordie server. The original song is hosted at www.xguitar.com. Chordie works as a search engine and provides on-the-fly formatting. Chordie does not index songs against artists'/composers' will. To remove this song please click here.

This song is displayed as text-only. Transposing and tuning is only available for chordpro-songs.

Login - add to songbook

Rating click stars to rate

Layout
Accuracy

SHARE PAGE  




You need to log in to post comments