Guitar Tabs, Chords and Lyrics


Turn the Other Way    Avenged Sevenfold



Artist: Avenged Sevenfold
Title: Turn The Other Way
Album: Sounding The Seventh Trumpet
Guitarists: Zacky Vengeance and Synyster Gates
Tabbed by: Hampster Wheel (Il0v0Il@aol.com)

-------------------------------------------------------------------

*              : Harmonics (artificial unless otherwise noted)
:              : Palm Mute
.              : Sticatto
/ \\            : Slide Up/Down
h              : Hammer
p              : Pull
( )            : Ghost Note
~              : Let Ring

|¯¯¯¯¯¯ |1.¯
|o------|---o| : Alternate Endings
|o------|---o|

-------------------------------------------------------------------

Intro:
e|---------------------------
b|---------------------------
G|---------------------------
D|-0-----3-6---9---8---3-2---
A|-0-----3-6---9---8---3-2---
D|-0-----3-6---9---8---3-2---

 |¯¯¯¯¯¯¯¯¯¯¯¯¯¯¯¯¯¯¯¯¯¯¯¯¯¯¯ |1.¯¯¯¯¯¯¯¯ |2,4¯¯ |3.¯¯¯¯¯¯¯¯
e|----------------------------|-----------|------|-----------
b|----------------------------|-----------|------|-----------
G|o---------------------------|-----*----o|-----o|-----*----o
D|o-000---00000---0---00000---|---*-5----o|-0-1-o|---*-5-*--o
A|--000---00000---0---00000---|---5-------|-0-1--|---5---5---
D|--000---00000---0---00000---|-(natural)-|-0-1--|-(natural)-
    :::   :::::   :   :::::

 |¯¯¯¯¯¯¯¯¯¯¯¯¯¯¯¯¯¯¯¯¯¯¯¯¯¯¯ |1.¯¯¯¯¯¯¯¯ |2,4¯¯ |3.¯¯¯¯¯¯¯¯
e|----------------------------|-----------|------|-----------
b|----------------------------|-----------|------|-----------
G|o---.-------.---.-------.---|-----*----o|-----o|-----*----o
D|o-0-0---0-0-0---0---0-0-0---|---*-5----o|-0-1-o|---*-5-*--o
A|--0-0---0-0-0---0---0-0-0---|---5-------|-0-1--|---5---5---
D|--0-0---0-0-0---0---0-0-0---|-(natural)-|-0-1--|-(natural)-

Verse 1:
 |¯¯¯¯¯¯¯¯¯¯¯¯¯¯¯ |1,3¯¯¯¯¯¯¯¯¯¯¯¯¯¯¯¯¯ |2.¯¯¯¯¯¯¯¯¯¯¯¯¯¯¯¯¯¯¯¯¯ |4.¯¯¯¯¯¯¯¯¯¯¯¯¯¯¯¯¯
e|----------------|---------------------|------------------------|--------------------
b|----------------|---------------------|------------------------|--------------------
G|o---------------|--------------------o|-----------------------o|-------------------o
D|o---------------|--------------------o|---------------8-7-----o|-------------------o
A|--5-8-7----8----|-8---7-8-7-8-/10-10--|-8h10--8--10-------8-7--|-8h10--8--7-8-7-3---
D|--------10-8----|-8---7-8-7-8-/10-10--|-------------------8-7--|--------------------

e|---------------------------      --------
b|---------------------------      --------
G|---------------------------  2x  ---7\\---
D|-000---00000---0---00000--- then ---7\\---
A|-000---00000---0---00000---      ---5\\---
D|-000---00000---0---00000---      --------
   :::   :::::   :   :::::

 |¯¯¯¯¯¯¯¯¯¯¯¯¯¯¯¯¯¯¯¯¯¯¯¯¯¯¯ |1.¯¯¯¯¯¯¯¯ |2,4¯¯ |3.¯¯¯¯¯¯¯¯¯¯
e|----------------------------|-----------|------|-------------
b|----------------------------|-----------|------|-------------
G|o---.-------.---.-------.---|-----*----o|-----o|-----*------o
D|o-0-0---0-0-0---0---0-0-0---|---*-5----o|-0-1-o|---*-5-*----o
A|--0-0---0-0-0---0---0-0-0---|---5-------|-0-1--|---5---5-----
D|--0-0---0-0-0---0---0-0-0---|-(natural)-|-0-1--|-(natural)---

e|-------------------------------------
b|-------------------------------------
G|-.------.------.---------------------
D|-0------0------0-----------------*---
A|-0------0------0-----5-3-0-------5---
D|-0------0------0-----------6-5-3-----

Verse 2:
e|-----------------------------------------------------------------
b|-----------------------------------------------------------------
G|----------------------------------------------------------------- 4x
D|-0---0---0---0-------------------1---1---1---1---------------*---
A|-0---0---0---0-------------------1---1---1---1---5-3-0-------5---
D|-0---0---0---0---3p0--/5p0---3p0-1---1---1---1---------6-5-3-----

Breakdown 1:
e|-------------------------------------------------------------------------
b|-------------------------------------------------------------------------
G|----------------------------------------------------------------5-p3-6--- 8x
D|-0-0--------------0---0--------------0-0------------0-0-0-0--------------
A|-0-0--------6p5---0---0--------7p6---0-0--------6p5-0-0-0-0--------------
D|-0-0---6-p5-------0---0---6-p5-------0-0---6-p5-----0-0-0-0--------------
   : :              :   :              : :            : : : :

Guitar 1:
e|------------------------------------------------------------------------------
b|------------------------------------------------------------------------------
G|---------7---8---------/8---10--------10-12-----------------------------------
D|-0-0------(7)-(7)0-0-----(8)-(8)0-0---------12---12h13p12-10--------------*---
A|-0-0-------------0-0------------0-0--------------------------13-12-13-10-12---
D|-0-0-------------0-0------------0-0-------------------------------------------
   : :             : :            : :

e|--------------------------------------------------------------------------
b|--------------------------------------------------------------------------
G|---------7---8---------/8---10--------10-12-------------------------------
D|-0-0------(7)-(7)0-0-----(8)-(8)0-0---------12---12h13p12-10--------------
A|-0-0-------------0-0------------0-0--------------------------13-12---13---
D|-0-0-------------0-0------------0-0---------------------------------------
   : :             : :            : :

Guitar 2:
e|-------------------------------------------------------------------------
b|-------------------------------------------------------------------------
G|---------7---8---------/8---10--------10-12------------------------------
D|-0-0------(7)-(7)0-0-----(8)-(8)0-0---------12---0-0-10--------------*---
A|-0-0-------------0-0------------0-0--------------0-0----13-12-13-10-12---
D|-0-0-------------0-0------------0-0--------------0-0---------------------
   : :             : :            : :              : :

e|---------------------------------------------------------------------
b|---------------------------------------------------------------------
G|---------7---8---------/8---10--------10-12--------------------------
D|-0-0------(7)-(7)0-0-----(8)-(8)0-0---------12---0-0-10--------------
A|-0-0-------------0-0------------0-0--------------0-0----13-12---13---
D|-0-0-------------0-0------------0-0--------------0-0-----------------
   : :             : :            : :              : :


Breakdown 2:
e-----------------------------------------------------------------------------
b-6-6-6-6-6-6-6-6-6-6-6-6-8-8-10-10-11-11-11-11-11-11-11-11-3-3-3-3-3-3-3-3---
G-5-5-5-5-5-5-5-5-5-5-5-5-7-7-9--9--10-10-10-10-10-10-10-10-2-2-2-2-2-2-2-2---
D-3-3-3-3-3-3-3-3-3-3-3-3-5-5-7--7--8--8--8--8--8--8--8--8--0-0-0-0-0-0-0-0---
A-3-3-3-3-3-3-3-3-3-3-3-3-5-5-7--7--8--8--8--8--8--8--8--8--0-0-0-0-0-0-0-0---
D-3-3-3-3-3-3-3-3-3-3-3-3-5-5-7--7--8--8--8--8--8--8--8--8--0-0-0-0-0-0-0-0---

e|-------------------------------------------------------------------
b|-------------------------------------------------------------------
G|-------------------------------------------------------------------
D|-1-1-1-1-1-1-1-1-1-1-1-1-1-1-1-1-3-3-3-3-3-3-3-3-0-0-0-0-0-0-0-0---
A|-1-1-1-1-1-1-1-1-1-1-1-1-1-1-1-1-3-3-3-3-3-3-3-3-0-0-0-0-0-0-0-0---
D|-1-1-1-1-1-1-1-1-1-1-1-1-1-1-1-1-3-3-3-3-3-3-3-3-0-0-0-0-0-0-0-0---

e|-------------------------------------------------------------------
b|-------------------------------------------------------------------
G|-------------------------------------------------------------------
D|-5-5-5-5-5-5-5-5-5-5-5-5-5-5-3-3-1-1-1-1-1-1-1-1-1-1-1-1-1-1-1-1---
A|-5-5-5-5-5-5-5-5-5-5-5-5-5-5-3-3-1-1-1-1-1-1-1-1-1-1-1-1-1-1-1-1---
D|-5-5-5-5-5-5-5-5-5-5-5-5-5-5-3-3-1-1-1-1-1-1-1-1-1-1-1-1-1-1-1-1---

e|-------------------------------------------------------------------
b|-----------------------------------------------------.-------------
G|-3-3-3-3-3-3-3-3-3-3-3-3-3-3-3-3---------------.---7-7---7-7-7-7---
D|-3-3-3-3-3-3-3-3-3-3-3-3-3-3-3-3-3-3-3-3-3-3-3-3---7-7---7-7-7-7---
A|-1-1-1-1-1-1-1-1-1-1-1-1-1-1-1-1-3-3-3-3-3-3-3-3---5-5---5-5-5-5---
D|---------------------------------3-3-3-3-3-3-3-3-------------------

Verse 3:
Guitar 1:
e|--------------------------------------------------------------------
b|--------------------------------------------------------------------
G|-------------------------------------------------------------------- 7x
D|-5-5---------5-5-5-5--------------5-5----------5-5--6--5--1--3--6---
A|-5-5---------5-5-5-5--------------5-5----------5-5--6--5--1--3--6---
D|-5-5---------5-5-5-5--------------5-5----------5-5--6--5--1--3--6---
                                                   :  :  :  :  :  :
e|--------------------------------------------------------------------
b|--------------------------------------------------------------------
G|--------------------------------------------------------------------
D|-5-5---------5-5-5-5--------------5-5----------5-5--6--5--1--3--6~--
A|-5-5---------5-5-5-5--------------5-5----------5-5--6--5--1--3--6~--
D|-5-5---------5-5-5-5--------------5-5----------5-5--6--5--1--3--6~--
                                                   :  :  :  :  :
Guitar 2:
e|-------------------------------------------------------------------
b|-------------------------------------------------------------------
G|-7-7-7-7-7-7-7-7-7-7-7-7-7-7-7-7-8-8-8-8-8-8-8-8-5-5-5-5-5-5-5-5--- x3
D|-x-x-x-x-x-x-x-x-x-x-x-x-x-x-x-x-x-x-x-x-x-x-x-x-x-x-x-x-x-x-x-x---
A|-5-5-5-5-5-5-5-5-5-5-5-5-5-5-5-5-6-6-6-6-6-6-6-6-3-3-3-3-3-3-3-3---
D|-------------------------------------------------------------------

e|--------------------------------------------------------------------
b|--------------------------------------------------------------------
G|-7-7-7-7-7-7-7-7-7-7-7-7-7-7-7-7-8-8-8-8-8-8-8-8--------------------
D|-x-x-x-x-x-x-x-x-x-x-x-x-x-x-x-x-x-x-x-x-x-x-x-x-5--6--5--1--3--6---
A|-5-5-5-5-5-5-5-5-5-5-5-5-5-5-5-5-6-6-6-6-6-6-6-6-5--6--5--1--3--6---
D|-------------------------------------------------5--6--5--1--3--6---
                                                   :  :  :  :  :  :
Play Guitar 1's part 4x, let last note ring.

Outro:
Guitar 1:
e|--------------------------------------------------------------------
b|--------------------------------------------------------------------
G|--------------------------------------------------------------------
D|--------------------------------------5/7---5---3---2-3-2-----------
A|-----/5-6-5---5/8---7-5-3---5--0---1----------------------5-3---7---
D|-0------------------------------------------------------------------

e|-------------------------------------------------------------------
b|-------------------------------------------------------------------
G|-------------------------------------------------------------------
D|----------------------5-7-5---7-8-7---8-10-8---7---5-7-5-----------
A|-----5-6-5---5-/8-7--------------------------------------8-7---8---
D|-0-----------------------------------------------------------------

Guitar 2:
e|-------------------------------------------------------------------------------------
b|-------------------------------------------------------------------------------------
G|-------------------------------------------------------------------------------------
D|-0-0-0-0-0-0-0-0-0-10-10-10-10-10-10-10-10-8-8-8-8-8-8-8-8-10-10-10-10-10-10-10-10---
A|-0-0-0-0-0-0-0-0-0-10-10-10-10-10-10-10-10-8-8-8-8-8-8-8-8-10-10-10-10-10-10-10-10---
D|-0-0-0-0-0-0-0-0-0-10-10-10-10-10-10-10-10-8-8-8-8-8-8-8-8-10-10-10-10-10-10-10-10---

Fade out.  Whew.

Live, they play the outro part 16 (I think) times, then go to:


e|---------------------------
b|---------------------------
G|---------------------------
D|-000---00000---0---00000---
A|-000---00000---0---00000---
D|-000---00000---0---00000---
   :::   :::::   :   :::::

And end it there.



Important: The song above is NOT stored on the Chordie server. The original song is hosted at www.xguitar.com. Chordie works as a search engine and provides on-the-fly formatting. Chordie does not index songs against artists'/composers' will. To remove this song please click here.

This song is displayed as text-only. Transposing and tuning is only available for chordpro-songs.

Login - add to songbook

Rating click stars to rate

Layout
Accuracy

SHARE PAGE  




You need to log in to post comments