Guitar Tabs, Chords and Lyrics


Warmness on the Soul    Avenged Sevenfold



E-10----------------------10-10-7-7-------------------------------------------------
a---7-10---10---10-7-1/2------------7-7-10------------------------------------------
d--------7----7----------------------------7-9-----9/10------9-9h10p9p7---7----7----
g----------------------------------------------9-7------7997------------7-----------
b---------------------------------------------------------------------------10------


E-----------------------------------------------------------------------------------
a-----------------------------------------------------------------------------------
d-10h12p10-10-----------------------------------------------------------------------
g-------------7-9-9-7-7/-----7-----7-------------7-7h10-----------------------------
b------------------------8-7---8-7---10-8-7--8-7--------7-8-7/0---------------------

the rest of the guitar is simple just strum out a c power chord then a d power chord
and then a gpower chord untill you hear the music stop
    c      d       g
E------------------3
a---3------5-------5
d---5------7-------5


Important: The song above is NOT stored on the Chordie server. The original song is hosted at www.xguitar.com. Chordie works as a search engine and provides on-the-fly formatting. Chordie does not index songs against artists'/composers' will. To remove this song please click here.

This song is displayed as text-only. Transposing and tuning is only available for chordpro-songs.

Login - add to songbook

Rating click stars to rate

Layout
Accuracy

SHARE PAGE  




You need to log in to post comments