Guitar Tabs, Chords and Lyrics


Desecrate Through Reverance    Avenged Sevenfold



Another correction

^-slight vibrato
v-vibrato
V-Wide vibrato
....-Palm Mute
Let Ring-~
Stacatto-#
LetRing for approx. 2 sec then stacatto-~#


PLAY ALL OF THIS TABE STACATTO: except for the vibrato
E|----------------------------------------------------------------||
B|----------------------------------------------------------------||
G|----------------------------------------------------------------||
D|--0-0-0---------------------------------------------------------||
A|--0-0-0---8-0---7-0----7^-5-5-8-7V~#----------------------------||
D|--0-0-0-------8------5------------------------------------------||
    . . .
Basically the same but i think this sounds better (RIGHT)
E|----------------------------------------------------------------||
B|----------------------------------------------------------------||
G|--------------------------------------------7---9-10------------||
D|--0-0-0--0-0--0-----------------------7-------8-----------------||
A|--0-0-0--0-0--0---8-0---7p0----5h7-5----7-8---------------------||
D|--0-0-0--0-0--0-------8------3----------------------------------||


Important: The song above is NOT stored on the Chordie server. The original song is hosted at www.xguitar.com. Chordie works as a search engine and provides on-the-fly formatting. Chordie does not index songs against artists'/composers' will. To remove this song please click here.

This song is displayed as text-only. Transposing and tuning is only available for chordpro-songs.

Login - add to songbook

Rating click stars to rate

Layout
Accuracy

SHARE PAGE  




You need to log in to post comments