Guitar Tabs, Chords and Lyrics


Eternal Rest    Avenged Sevenfold



Artist: Avenged Sevenfold
Title: Eternal Rest
Album: Waking The Fallen
Gutiarists: Zacky Vengeance and Synyster Gates
Tabbed By: TheHampsterWheel

I'm not going to bother with the solo... sorry.

Part 1 (0:00)
e----------------------------------------------------------------|
B-----:::-----------------------:::------------------------      |
G-5---555-5-5-----------------5-555-5---------------------- Play |
D-5---555-5-5-----------------5-555-5----------------------  2x  |
A-3---333-3-3-----------------3-333-3---::::::::::::::::---      |
D---------------1-3---3-1-3-------------1111333344443333---      |Play
                                                                 |
e----------------------------------------------------------      | 2x
B-----:::-----------------------:::------------------------      |
G-7---777-7-7-----------------7-777-7---------------------- Play |
D-7---777-7-7-----------------7-777-7----------------------  2x  |
A-5---555-5-5-----------------5-555-5---::::::::::::::::---      |
D---------------3-5---5-3-5-------------3333555566665555---------|

Part 2 (0:40):
Guitar One:
e------
B------
G------
D-0~---
A-0~---
D-0~---

e----------------------------------------
B----------------------------------------
G----.---.-------------.----------------- Play
D-/3-0---0---0-/3-0-/3-0---0-/3-0-/6-\\---  4x
A-/3-0---0---0-/3-0-/3-0---0-/3-0-/6-\\---
D-/3-0---0---0-/3-0-/3-0---0-/3-0-/6-\\---

Guitar Two:
e------
B------
G------
D-0~---
A-0~---
D-0~---

e---------------------------------------------------------
B---------------------------------------------------------
G-:-:-:-:-:-:-:-:-:-:-:-:-:-:-:-:-:-:-:-:-:-:-:-:-:-:-:--- Pick
D-0-0-0-0-0-0-0-0-0-0-0-0-0-0-0-0-0-0-0-0-0-0-0-0-0-0-0--- Slide
A-0-0-0-0-0-0-0-0-0-0-0-0-0-0-0-0-0-0-0-0-0-0-0-0-0-0-0---
D-0-0-0-0-0-0-0-0-0-0-0-0-0-0-0-0-0-0-0-0-0-0-0-0-0-0-0---

Both Guitars:
e----------------------------------------
B----------------------------------------
G----.---.-------------.----------------- Play
D-/3-0---0---0-/3-0-/3-0---0-/3-0-/6-\\---  4x
A-/3-0---0---0-/3-0-/3-0---0-/3-0-/6-\\---
D-/3-0---0---0-/3-0-/3-0---0-/3-0-/6-\\---

Part 3 (1:15):
e------------------------------------------
B------------------------------------------
G-:-:-:-.-------:-:-.---:-:-.---.---------- Play
D-0-0-0-0-------0-0-0---0-0-5---3---3-h5---  4x
A-0-0-0-0-------0-0-0---0-0-5---3---3-h5---
D-0-0-0-0-------0-0-0---0-0-5---3---3-h5---

Part 4 (1:32):
Guitar One:
e----------------------------------------------------------------------
B----------------------------------------------------------------------
G-----7-6~-----6-7-/9~---7-9-10-9~-------7-6~-----6-7-/9~---6-7-9------
D---7----------------------------------7--------------------------7~---
A-5----------------------------------5---------------------------------
D----------------------------------------------------------------------

Guitar Two:
e----------------------------------------------------------------------
B-----6-5~-----5-6-/8~---6-8-10-8~-------6-5~-----5-6-/8~---5-6-8------
G-----------------------------------------------------------------6~---
D---7----------------------------------7-------------------------------
A-5----------------------------------5---------------------------------
D----------------------------------------------------------------------

Guitar Three (Overdubbed):
e-----------------------------------------
B-----------------------------------------
G-:-:-:-.-------:-:-.---:-:-.---.-----.--- Play
D-0-0-0-0-------0-0-0---0-0-0---0---0-0---  4x
A-0-0-0-0-------0-0-0---0-0-0---0---0-0---
D-0-0-0-0-------0-0-0---0-0-0---0---0-0---

Both Guitars:
Time Change to 3/4
e---------------------------
B---------------------------
G-:-:-:-:-:-:-:-:-:-:-:-:---
D-0-0-0-0-0-0-0-0-0-0-0-0---
A-0-0-0-0-0-0-0-0-0-0-0-0---
D-0-0-0-0-0-0-0-0-0-0-0-0---

Part 5 (1:43):
e----------------------------------------------------------
B----------------------------------------------------------
G-:::-::------:----------------------------------:-:-::6---
D-000-000-----0----------------------------------0-0-006---
A-000-000-----0------------------7-0-8-0-7-8-7-2-0-0-004---
D-000-000-----0-0-2-3-2-/5-3-2-0-----------------0-0-00----

e------------------------------------------------
B------------------------------------------------
G--------------------------------------:-:-::----
D--------------------------------------0-0-000---
A-------------5---5-/8---7---7-/10-8-7-0-0-000---
D-----0-2-3-2---2------5---3-----------0-0-000---

e----------------------------------------------------------
B----------------------------------------------------------
G---:::----------------------------------:-:-::6---
D---000----------------------------------0-0-006---
A---000------------------7-0-8-0-7-8-7-2-0-0-004---
D---000-0-2-3-2-/5-3-2-0-----------------0-0-00----

e------------------------------------------
B------------------------------------------
G------------------------------------------
D--------------------------------------0~---
A-------------5---5-/8---7---7-/10-8-7-0~---
D-----0-2-3-2---2------5---3-----------0~---

Part 6 (2:01):
e---------------------------------------------------------------------------------------------------
B---------------------------------------------------------------------------------------------------
G---------------------------------------------------------------------------------------------------
D-7-7-7-7-7-7-5-5-5-5-5-5-5-5-5-5-5-5-5-5-5-5-5-5-5-5-5-5-5-5-8-8-8-8-8-8-7\\3-3-3-3-3-3-3-3-3-3-3---
A-7-7-7-7-7-7-5-5-5-5-5-5-6-6-6-6-6-6-6-6-6-6-6-6-5-5-5-5-5-5-8-8-8-8-8-8-7\\3-3-3-3-3-3-3-3-3-3-3---
D-7-7-7-7-7-7-5-5-5-5-5-5-5-5-5-5-5-5-5-5-5-5-5-5-5-5-5-5-5-5-8-8-8-8-8-8-7\\3-3-3-3-3-3-3-3-3-3-3---

e---------------------------------------------------------------------------
B---------------------------------------------------------------------------
G---------------------------------------------------------------------------
D-7-7-7-7-7-7-5-5-5-5-5-5-5-5-5-5-5-5-5-5-5-5-5-5-5-5-5-5-5-5-8-8-8-8-8-8---
A-7-7-7-7-7-7-5-5-5-5-5-5-6-6-6-6-6-6-6-6-6-6-6-6-5-5-5-5-5-5-8-8-8-8-8-8---
D-7-7-7-7-7-7-5-5-5-5-5-5-5-5-5-5-5-5-5-5-5-5-5-5-5-5-5-5-5-5-8-8-8-8-8-8---

Part 7 (2:16):
Time Change to 4/4. (Don't comment saying I'm wrong.  Even though there are only three
                     notes per beat, the timing is 4/4 and the notes are triplets.)
Guitar One:
e-------------------------------------------------------------------------------
B--------------------------------------------------------6-5-6-/10-9-10-/14-\\---
G-5-6-5-------5-6-5-------5-6-5---5----------------6-5-6------------------------
D-------8-7-5-------8-7-5-------8---8-7-8-7-5~----------------------------------
A-------------------------------------------------------------------------------
D-------------------------------------------------------------------------------

Guitar Two:
e------------------------------------------------------------------------------------
B------------------------------------------------------------------------------------
G-------------------------------------------------------------7-6-7-/10-9-10-/14-\\---
D-7-8-7--------7-8-7--------7-8-7----8------------------8-7-8------------------------
A-------10-8-7-------10-8-7-------10---10-8-10-8-7~----------------------------------
D------------------------------------------------------------------------------------

Part 8 (2:22):
Both Guitars:
e----------------------------------------
B----------------------------------------
G----.---.-------------.----------------- Play
D-/3-0---0---0-/3-0-/3-0---0-/3-0-/6-\\---  4x
A-/3-0---0---0-/3-0-/3-0---0-/3-0-/6-\\---
D-/3-0---0---0-/3-0-/3-0---0-/3-0-/6-\\---

Part 9 (2:39):
e--------------------------------------------------------------------------------------------
B--------------------------------------------------------------------------------------------
G------------------------------------------------------------------|---Tremelo-Picking---|--- Play
D-0~-------4~-------5~-------10~--------0~-------3~-------8~-------|---------------------|---  2x
A-0~-------4~-------5~--------8~--------0~-------3~-------8~-------5-5-5-4-4-4-7-7-7-8-8-8---
D-0~-------4~-------5~--------8~--------0~-------3~-------8~---------------------------------

Part 9 (3:12):
Both Guitars:
e------------------------------------------
B------------------------------------------
G-:-:-:-.-------:-:-.---:-:-.---.---------- Play
D-0-0-0-0-------0-0-0---0-0-5---3---3-h5---  4x
A-0-0-0-0-------0-0-0---0-0-5---3---3-h5---
D-0-0-0-0-------0-0-0---0-0-5---3---3-h5---

Guitar One:
e---------------------------------------------------------------------------
B---------------------------------------------------------------------------
G-14-14-14-14-14-14-14-14-14-14-14-14-15-15-15-15-15-15-18-18-18-18-18-18---
D--x--x--x--x--x--x--x--x--x--x--x--x--x--x--x--x--x--x--x--x--x--x--x--x---
A-12-12-12-12-12-12-12-12-12-12-12-12-13-13-13-13-13-13-16-16-16-16-16-16---------|
D--------------------------------------------------------------------------- Play |
                                                                                  |
e---------------------------------------------------------------------------  2x  |
B---------------------------------------------------------------------------------|
G-14-14-14-14-14-14-14-14-14-14-14-14-10-10-10-10-10-10-9-9-9-9-9-9---------
D--x--x--x--x--x--x--x--x--x--x--x--x--x--x--x--x--x--x-x-x-x-x-x-x---------
A-12-12-12-12-12-12-12-12-12-12-12-12--8--8--8--8--8--8-7-7-7-7-7-7---------
D---------------------------------------------------------------------------

Guitar Two plays the "Both Guitars" part 4x more.

Part 7 Revisited (2:16)
Guitar One:
e-------------------------------------------------------------------------------
B--------------------------------------------------------6-5-6-/10-9-10-/14-\\---
G-5-6-5-------5-6-5-------5-6-5---5----------------6-5-6------------------------
D-------8-7-5-------8-7-5-------8---8-7-8-7-5~----------------------------------
A-------------------------------------------------------------------------------
D-------------------------------------------------------------------------------

Guitar Two:
e------------------------------------------------------------------------------------
B------------------------------------------------------------------------------------
G-------------------------------------------------------------7-6-7-/10-9-10-/14-\\---
D-7-8-7--------7-8-7--------7-8-7----8------------------8-7-8------------------------
A-------10-8-7-------10-8-7-------10---10-8-10-8-7~----------------------------------
D------------------------------------------------------------------------------------

Part 10 (3:52)
Both Guitars:
e---------------------------------------------------------------------
B---------------------------------------------------------------------
G--------------------------------------------------------------------- Play
D-0---0-0-0---/10-8-----8-7-8-7-3-5---5-5-5---/12-11---11-12---14-\\---  2x
A-0---0-0-0---/10-8-----8-7-8-7-3-5---5-5-5---/12-11---11-12---14-\\---
D-0---0-0-0---/10-8-----8-7-8-7-3-5---5-5-5---/12-11---11-12---14-\\---

e--------------------------------------------------------------------
B--------------------------------------------------------------------
G-:-:--:-:-:-:-:-:---------------------------------------------------
D-0-8-10-7-8-5-7-3-7-----8---7---5---5-5-5---/12-11---11-12---14-\\---
A-0-8-10-7-8-5-7-3-7-----8---7---5---5-5-5---/12-11---11-12---14-\\---
D-0-8-10-7-8-5-7-3-7-----8---7---5---5-5-5---/12-11---11-12---14-\\---

e---------------------------------------------------------------------
B---------------------------------------------------------------------
G--------------------------------------------------------------------- Play
D-0---0-0-0---/10-8-----8-7-8-7-3-5---5-5-5---/12-11---11-12---14-\\---  4x
A-0---0-0-0---/10-8-----8-7-8-7-3-5---5-5-5---/12-11---11-12---14-\\---
D-0---0-0-0---/10-8-----8-7-8-7-3-5---5-5-5---/12-11---11-12---14-\\---

e--------------------------------------------------------------------
B--------------------------------------------------------------------
G-:-:--:-:-:-:-:-:---------------------------------------------------
D-0-8-10-7-8-5-7-3-7-----8---7---5---5-5-5---/12-11---11-12---14-\\---
A-0-8-10-7-8-5-7-3-7-----8---7---5---5-5-5---/12-11---11-12---14-\\---
D-0-8-10-7-8-5-7-3-7-----8---7---5---5-5-5---/12-11---11-12---14-\\---

e---------------------------------------------------------------------
B---------------------------------------------------------------------
G---------------------------------------------------------------------
D-0---0-0-0---/10-8-----8-7-8-7-3-5---5-5-5---/12-11---11-12---14-\\---
A-0---0-0-0---/10-8-----8-7-8-7-3-5---5-5-5---/12-11---11-12---14-\\---
D-0---0-0-0---/10-8-----8-7-8-7-3-5---5-5-5---/12-11---11-12---14-\\---

e------
B------
G------
D-0~---
A-0~---


Important: The song above is NOT stored on the Chordie server. The original song is hosted at www.xguitar.com. Chordie works as a search engine and provides on-the-fly formatting. Chordie does not index songs against artists'/composers' will. To remove this song please click here.

This song is displayed as text-only. Transposing and tuning is only available for chordpro-songs.

Login - add to songbook

Rating click stars to rate

Layout
Accuracy

SHARE PAGE  




You need to log in to post comments