""; ?> Incomplete by Backstreet Boys - guitar chords, guitar tabs and lyrics - chordie

Incomplete

Backstreet Boys

E--2--------------|-0---------------|-0--------------------|

B----4------------|---2-------------|---2------------------|
G------4---4------|-----2---2-------|-----2---2--2--1--4---|
D--------2--------|-------1---------|-------1--------------|
A-----------------|-----------------|----------------------|
E-----------------|-----------------|----------------------|
E--2--------------|-0---------------|-0-----------------------|
B----4------------|---2-------------|---2---------------------|
G------4---4------|-----2---2-------|-----2---2-----2--1------|
D--------2--------|-------1---------|-------1-------------5---|
A-----------------|-----------------|-------------------------|
E-----------------|-----------------|-------------------------|

 F#mFEBm
    Empty spaces fill me up with homes

 F#mFEBm
    Distant faces with no place left to go

 F#mFEBm
    I found you within me I cant find nowhere

 F#mFEBm
    Where I'm going is anybody's gaze

Chorus

 F#mEBm
    I tried  to go like i never knew you

 F#mEBm
    I'm awake but my words have a sleep

 F#mEBm
    I pray for this heart to be heartbroken

 F#mEBm
Though without you all i'm going to be is

Instrumental

 EFF#mFEBm
 Incomplete          

Verse

Voices tell me I should carry on
I am sweating in an ocean all alone
Baby, my baby is witting on you face
You still wonder if we made a big mistake

Chorus

Bridge

 EBm
 I dont mean to try get on

 F#m
But i can see me let me go

 EBmF#mEF
 I dont wamt to make your face this world alone        

 BmF#mEFB#m
 E
 I try...

Chorus

End:

E--2--------------|-0---------------|-0--------------------|
B----4------------|---2-------------|---2------------------|
G------4---4------|-----2---2-------|-----2---2--2--1--4---|
D--------2--------|-------1---------|-------1--------------|
A-----------------|-----------------|----------------------|
E-----------------|-----------------|----------------------|

In - com

E--2--------------|-0---------------|-0-----------------------|
B----4------------|---2-------------|---2---------------------|
G------4---4------|-----2---2-------|-----2---2-----2--1------|
D--------2--------|-------1---------|-------1-------------5---|
A-----------------|-----------------|-------------------------|
E-----------------|-----------------|-------------------------|

pleeeeeeeeeeeeeete


Bm E F F#m
variations - click chord images
Transpose chords:
Tuning:
Cool service:
View: Size:
A  A  A
Rating:
Layout:
  • Currently 3/5 Stars.
  • 1
  • 2
  • 3
  • 4
  • 5
 
Accuracy:
  • Currently 3.3/5 Stars.
  • 1
  • 2
  • 3
  • 4
  • 5
 
click stars to rate
Chordie recommends:
Check out these online guitar lessons
Songbook:
Login to add this song to your songbook
Support the artist
Preview/buy this song
MSN Music
Why this non-profit ad?

 
login to add comments/video/corrections