Guitar Tabs, Chords and Lyrics


I Against I    Bad Brains



Bad Brains - I Against I
Tabbed By: Emery_Rocks
Email: Emery_Rocks@punkmusic.com

Intro:
E----------
B----------
G----------
D--6----3--
A--6----3--
E--4----1--

Part 1
E-----------------------------------------------------
B-----------------------------------------------------
G--3--3--3--3----5------------------------------------  repeat
D--3--3--3--3----5---0---6----3--X--X--X--3--X--X--X--  6 times
A--1--1--1--1----3---0---6----3--X--X--X--3--X--X--X--
E------------------------4----1--X--X--X--1--X--X--X--

Bridge
E-------------
B-------------
G--7-----5----
D--7--6--5----
A--5--6--3----
E-----4-------

Part 2
E-----------------------------------
B-----------------------------------   repeat a couple times
G--7-------7--8------5--7------5----   and throw in some palm
D--7---6---7--8---6--5--7---6--5----   mutes
A--5---6---5--6---6--3--5---6--3----
E------4----------4---------4-------

Bridge 2
E-------------
B-------------
G--3----------
D--3-----6----
A--1-----6----
E--------4----

Part 3
E----------------------------------------
B----------------------------------------
G--3--3---8--7--------------------------- play this 4 times
D--3--3---8--7---6--X--X--X--6--X--X--X--
A--1--1---6--5---6--X--X--X--6--X--X--X--
E----------------4--X--X--X--4--X--X--X--

E-----
B-----
G-----  Play this a couple times then repeat part 3
D--4--
A--4--


Important: The song above is NOT stored on the Chordie server. The original song is hosted at www.xguitar.com. Chordie works as a search engine and provides on-the-fly formatting. Chordie does not index songs against artists'/composers' will. To remove this song please click here.

This song is displayed as text-only. Transposing and tuning is only available for chordpro-songs.

Login - add to songbook

Rating click stars to rate

Layout
Accuracy

SHARE PAGE  




You need to log in to post comments