Guitar Tabs, Chords and Lyrics


Seagull    Bad Company



Bad Company - Seagull
Tabbed By: Lee G.
Email: Antrocitysbass@aol.com

Tuning: Standard (E A D G B E)

everett made this tab really good except for the fact that it is upside down. This version is right-side-up.

Submitted by: Lee G.

Key: ~ = Let Ring
     / = Slide Down
     h = Hammer On
Intro:

e|------2-22-------2-22-------0-00-------0-00--||
B|------3-33-------3-33-------3-33-------3-33--||
G|-0h2--2-22--0h2--2-22-------2-22-------0-00--||
D|-0----------0--------------------------------||
A|-----------------------0h3--------0h2--------||
E|---------------------------------------------||

Chorus: Vary between up and down strokes

e|-2-2222-222-0-0000-000-0-000-3-333-2-2222-||
B|-3-3333-333-2-2222-222-1-111-3-333-3-3333-||
G|-2-2222-222-2-2222-222-0-000-0-000-2-2222-||
D|-0-0000-000-2-2222-222-2-222-0-000-0-0000-||
A|------------0-0000-000-3-333-2-222--------||
E|-----------------------------3-333--------||

Ending:

e|-2xx22/5xx55/7xx7-77xx7/10xx10/12-12--14~~-------------||
B|-3xx33/7xx77/8xx8-88xx8/11xx11/13-13--15~~-slowly stum-||
G|-2xx22/5xx55/7xx7-77xx7/10xx10/12-12--14~~---the last--||
D|----------------------------------------------chord----||
A|-------------------------------------------------------||
E|-------------------------------------------------------||

This is now a correction the chorus was wrong.

everett got the tab almost perfect besides the fact that it was upside


Important: The song above is NOT stored on the Chordie server. The original song is hosted at www.xguitar.com. Chordie works as a search engine and provides on-the-fly formatting. Chordie does not index songs against artists/composers will. To remove this song please click here.

This song is displayed as text-only. Transposing and tuning is only available for chordpro-songs.

Login - add to songbook

Rating click stars to rate

Layout
Accuracy

SHARE PAGE  




You need to log in to post comments

BalonzoShagnasty (report)

This bridge was played in Houston, Texas at a free concert at Jeppessen Stadium, c. 1976, sans Paul Rodgers. I was a 15 year old rocker who had moderate success including it in my sets until I retired in 2009. Give it a toss into your version, I think you'll be pleasantly surprised ... stnza 1 "Seagull you fly ..." stnza 2 "There is a man..."
br. ...D A C
... and you fly through the sky never
G D/D7 D A
asking why and you fly all around til
C C(cus) G ^ D
somebody~hey~ shoots you down. >end'g
of your choice ... ~Eddie~thx 9/3/11