eToCache5 = ""; ?> I Want To Conquer The World by Bad Religion - guitar chords, guitar tabs and lyrics - chordie

I Want To Conquer The World

Bad Religion

|---------------------------|

|---------------------------|

C#--B-A--E-C#--B-A--E-B (x2)

|-----------------------------------------------------------------------------

|--12--------------12---------------------------------------------------------

|--11--(13)-------(13)-9------------------------------------------------------

|---bend----------hold----11~-------11p9--------------------------------------

|-----------------------------------------11p9--7----------------7------------

|--------------------------------------------------9--------7h9-----------7---

------------------------------------------------------------------------------

--------------------------------------------------------9h12p9------9h12p9---

-------------------------------------------9--11--(13)----------11-----------

---------------9--------------------9--11------------------------------------

----7--7h9/11-----------------9h11-------------------------------------------

h9----------------------------------------------------------------------------

------------------------------------------------------------------------------

----9h12p9------9h12p9------9----------------9-----9--9---------9-----9--9--

11----------11----------11-----11--9~--------9-----9--9---------9-----9--9-

-----------------------------------------11-----------------11---------------

------------------------------------------------------------------------------

------------------------------------------------------------------------------

-----------------------------------||

----11-----11--11------9-----------||

----11-----11--11------9-----------||

11-----------------11--------------||

---------------------------~~~~~~--||

-----------------------------------||


 C#BAE
 hey brother christian with your high and mighty errand,
 C#BAEB
 your actions speak so loud I can't hear a word you're saying
 C#BAE
 hey sister bleeding heart with all of your compassion,
 C#BAEB
 your labors soothe the hurt but can't assuage temptation
Ryhthm for 1st and last solo:
C#--B-A--E-C#--B-A--E-B
|-------------9-------------------------------------------------------------9-
|----------------12------------------------------------------------------9----
|11--(13)------------11--(13)--9---------9--11--(13)--11p9-----11--(13)-------
|------------------------------------11---------------------------------------
|-----------------------------------------------------------------------------
|-----------------------------------------------------------------------------
-------9--11h12--11--11h12--11------||
9--12---------------------------14--||
------------------------------------||
------------------------------------||
------------------------------------||
------------------------------------||

 C#BAE
 hey man of science with your perfect rules of measure, 
 C#BAEB
 can you improve this place with the data that you gather
 C#BAE
 hey mother mercy can your loins bear fruit forever?
 C#BAEB
 is your fecundity a trammel or a treasure?
 A--B--CC#BAE
         I want to conquer the world,
 C#BAB
   give all the idiots a brand new religion,
 C#BA
   put an end to poverty uncleanliness
 EC#BA
and toll promote equality in all of my decisions
 G#
with a quick wink of the eye and a "god you must be joking"
------------------------------------------------------------------------------
9-----------*9--9---------------9--9------------9--9---------------9--9-----
11--(13)--------11--(13)-----------11--(13)--------11--(13)-----------11-----
--bend------------------------------------------------------------------------

-all F#'s---*hold these single
E's----------------------------------------------
------------------------------------------------------------------------------
------------------------------------------------------------------------------
---------9--9---------------9--9------------9--9------------9-----9----------
(13)--------11--(13)-----------11--(13)--------11--(13)-----------11--(13)----
------------------------------------------------------------------------------
------------------------------------------------------------------------------
------------------------------------------------------------------------------
------------------------------------------------------------------------------
12---------------------------------------------------------------------------
----(13)--11p9--------9h11(tr)--------9---------------------------------------

-reverse
bend---------------------11-----11p9------9----------------------------
-----------------------------------------------11-----11p9--11p9\7----------
--------------------------------------------------------------------------7---
------------------------------------------------------------------------||
----------------9-------------------9h12p9------9h12p9------9h12--(14)~-||
----------------9------9--11--(13)----------11----------11--------------||
-------------------11---------------------------------------------------||
----7-----9/11----------------------------------------------------------||
h9----------------------------------------------------------------------||

 C#BAE
                                     hey mister diplomat with your worldly aspirations,
 C#BAEB
 did you see the children cry when you left them at the station?
 C#BAE
  hey moral soldier you've got righteous proclamation 
 C#BAEB
 and precious tomes to fuel your pulpy conflagrations
 A--B--CC#BAE
         I want to conquer the world,
 C#BAB
  expose the culprits and feed them to the children,
 C#BAE
  do away with air pollution and then I'll save the whales,
 C#BAB
  we'll have peace on earth and global communio
 C#BAE
             I want to conquer the world
 C#BAB
 I want to conquer the world
 C#BAE
 I want to conquer the world
 C#BABC#
 I want to conquer the world.......
(Document End)


A B C# E G#
variations - click chord images
Transpose chords:
Tuning:
Cool service:
View: Size:
A  A  A
Rating:
Layout:
  • Currently 2.9/5 Stars.
  • 1
  • 2
  • 3
  • 4
  • 5
 
Accuracy:
  • Currently 3.1/5 Stars.
  • 1
  • 2
  • 3
  • 4
  • 5
 
click stars to rate
Chordie recommends:
Get acoustic guitar lessons and electric guitar lessons at JamPlay.com
Songbook:
Login to add this song to your songbook
Support the artist
Preview/buy this song
MSN Music
Why this non-profit ad?

 
login to add comments/video/corrections