Guitar Tabs, Chords and Lyrics


Supersonic    Bad Religion



Bad Religion - Supersonic
Tabbed By: gasper
Email: gsojar@hotmail.com

Tuning: Standard (E A D G B E)



                          _____  ______
Riff 1                   |   1. |    2.
E|-----------------------|-----|-------||
B|-----------------------|-----|-------||
G|-----------------------|-----|-------||
D|*-2-2-2-5-2-5-7-5-7-8-*|-7-5-|-9-9---||
A|*-2-2-2-5-2-5-7-5-7-8-*|-7-5-|-9-9---||
E|--0-0-0-3-0-3-5-3-5-6--|-5-3-|-7-7---||

Riff 2                                 x4
E|-------------------------------------||
B|-------------------------------------||
G|---------------5-5-5-5-4-------------||
D|-2-2-2-2-5-2-5-5-5-5-5-4-------------||
A|-2-2-2-2-5-2-5-3-3-3-3-2-------------||
E|-0-0-0-0-3-0-3-----------------------||

                               _________  ________
Riff 3                        | 1.,2.,3. |     4.
E|---------------------------|----------|---------||
B|---------------------------|----------|---------||
G|*-5-5-5-5-7-7-7-7---------*|----------|---------||
D|*-5-5-5-5-7-7-7-7-5-5-5-5-*|-4-4-4-4--|-5-5-5-5-||
A|--3-3-3-3-5-5-5-5-5-5-5-5--|-4-4-4-4--|-5-5-5-5-||
E|------------------3-3-3-3--|-2-2-2-2--|-3-3-3-3-||

Riff 4                     x2
E|-------------------------|---------||
B|-------------------------|---------||
G|-------------------------|---------||
D|-14-14-12-12-10-10-12-12-|-14-14---||
A|-14-14-12-12-10-10-12-12-|-14-14---||
E|-12-12-10-10--8--8-10-10-|-12-12---||
 |                                   ||
 |Guitar 2                           ||
E|---12----14----15----17--|---18----||
B|-------------------------|---------||
G|-------------------------|---------||
D|-------------------------|---------||
A|-------------------------|---------||
E|-------------------------|---------||

Riff 5
E|-12-12-12-12-12-12-11----------------||
B|-------------------------------------||
G|-------------------------------------||
D|-------------------------------------||
A|-------------------------------------||
E|-------------------------------------||

Riff 6
E|-------------------------------------||
B|-------------------------------------||
G|-------------------------------------||
D|-2-2-2-2-5-2-5-7-5-7-8-7-5-2---------||
A|-2-2-2-2-5-2-5-7-5-7-8-7-5-2---------||
E|-0-0-0-0-3-0-3-5-3-5-6-5-3-0---------||


Song structure:
Riff 1
Riff 2
Riff 3
Riff 1(second time guitar 2 plays riff 5)
Riff 2
Riff 3
Riff 4
Riff 1
Riff 3


Important: The song above is NOT stored on the Chordie server. The original song is hosted at www.xguitar.com. Chordie works as a search engine and provides on-the-fly formatting. Chordie does not index songs against artists/composers will. To remove this song please click here.

This song is displayed as text-only. Transposing and tuning is only available for chordpro-songs.

Login - add to songbook

Rating click stars to rate

Layout
Accuracy

SHARE PAGE  




You need to log in to post comments