Guitar Tabs, Chords and Lyrics


Reaper    Bathory



Band: Bathory
Album: Bathory
Song: The Reaper

Copyright (c)  Black Mark 1984


Transcribed By: Jeremy Fucking Leishman
Email: buriedbytimeanddust@yahoo.com


.  - palm mute           /  - slide up to
\  - slide down to       ~  - vibrato
h  - hammer on           b  - Bend
p  - pull off            Suffixes for bend
t  - tap                 f  - full bend    h - half bend
ph - pinched harmonic    q  - quarter bend t - tap bend
*  - see comment         ^  - Hold bend    r release bend
x  - Stuccatto           ~  - vibrato bend
,  - slight palm mute    () - ghost note, sustained note
"  - tremolo note         - Trill

Tuning Eb, tune every string down one half step

Riff 1
|--------------------------------------------------------|
|--------------------------------------------------------|
|--------------------------------------------------------|
|----------------------------------------5-----5-7-7-----|
|-777-5-8-5-7--777-5-8-5-7--777-5-8-5-7--3-5-5-3-5-5-----|
|-555-3-6-3-5--555-3-6-3-5--555-3-6-3-5----3-3-----------|

Riff 2
|--------------------------------------|
|--------------------------------------|
|--------------------------------------|
|--------------------------------------|
|-3"-------7"-------3"----2"----5"-----|
|-1"-------5"-------1"----0"----3"-----|

Riff 3 (solo riff)
|--------------------------------------------|
|--------------------------------------------|
|--------------------------------------------|
|----------------------------------------4---|
|-7"---------4-5-2--------7"---------4-5-2---|
|-5"---------2-3-0--------5"---------2-3-----|

Riff 4 (second solo riff)

|--------------------------------------------------------------|
|--------------------------------------------------------------|
|--------------------------------------------------------------|
|--------------------------------------------------------------|
|--------------------------------------------------------------|
|-7"---10"-7"---10"-7"---10"-7"---10"-7"---10"-7"---10" cont...|

Solo
Very fast tremelo picking
|------------------------------------------------------------|
|-10-h12p-10-h12p-10-h12p-10-h12p-10-h12p-10 etc... 12b(13)--|
|------------------------------------------------------------|
|------------------------------------------------------------|
|------------------------------------------------------------|
|------------------------------------------------------------|

|---------------------------------------------------------17-|
|-10-h12p-10-h12p-10-h12p-10-h12p-10-h12p-10 etc... 15-17----|
|------------------------------------------------------------|
|------------------------------------------------------------|
|------------------------------------------------------------|
|------------------------------------------------------------|

|-17"--15"--h17"--15-h17p-15-h17p-15-20b-19"-17"-19p-17-19p-17-19p-17-22-21-17-|
|------------------------------------------------------------------------------|
|------------------------------------------------------------------------------|
|------------------------------------------------------------------------------|
|------------------------------------------------------------------------------|
|------------------------------------------------------------------------------|

Really fast tremelo picking
|22-21-19-22-21-19-22-21-19-22-21-19-22-21-19-22-21-19-22-21-19-22-21-19-22b22b|
|------------------------------------------------------------------------------|
|------------------------------------------------------------------------------|
|------------------------------------------------------------------------------|
|------------------------------------------------------------------------------|
|------------------------------------------------------------------------------|

Really fast tremelo picking.
|-22-21-19-22-21-19-22-21-19-22-21-19-22-21-19-22-21-19-22-21-19-22-21-19-22b~~|
|------------------------------------------------------------------------------|
|------------------------------------------------------------------------------|
|------------------------------------------------------------------------------|
|------------------------------------------------------------------------------|
|------------------------------------------------------------------------------|



Important: The song above is NOT stored on the Chordie server. The original song is hosted at www.xguitar.com. Chordie works as a search engine and provides on-the-fly formatting. Chordie does not index songs against artists'/composers' will. To remove this song please click here.

This song is displayed as text-only. Transposing and tuning is only available for chordpro-songs.

Login - add to songbook

Rating click stars to rate

Layout
Accuracy

SHARE PAGE  




You need to log in to post comments