Guitar Tabs, Chords and Lyrics


One Eyed Old Man    Bathory



Bathory - One-Eyed Old Man
Tabbed By: Martijn Wietsma
Submitted by: Himmelfarht
Email: this_is_the_prophecy@hotmail.com

Tuning: Standard (E A D G B E)

This tab was made by Martijn Wietsma, so props to him for it!

Riff A
|--------------------------------------------------------|
|--------------------------------------------------------|
|-2-----------------2----2-----------------2-------------|
|-2--4-4--4-4--4-4--2----2--4-4--4-4--4-4--2-------------|
|-0--2-2--2-2--2-2--0----0--2-2--2-2--2-2--0-------------|
|--------------------------------------------------------|

|--------------------------------------------------------|
|--------------------------------------------------------|
|--------------------------------------------------------|
|--------------------------------------------------------|
|-5-5-5-5-5-5--5-5-5-5-5-5-------------------------------|
|-3-3-3-3-3-3--3-3-3-3-3-3-------------------------------|

|--------------------------------------------------------|
|--------------------------------------------------------|
|-2-----------------2----2-----------------2-------------|
|-2--4-4--4-4--4-4--2----2--4-4--4-4--4-4--2-------------|
|-0--2-2--2-2--2-2--0----0--2-2--2-2--2-2--0-------------|
|--------------------------------------------------------|

|--------------------------------------------------------|
|--------------------------------------------------------|
|--------------------------------------------------------|
|--------------------------------------------------------|
|-5-5-5-5-5-5--5-5-5-5-5-5----4--------------------------|
|-3-3-3-3-3-3--3-3-3-3-3-3----2--------------------------|

Riff B
|--------------------------------------------------------|
|--------------------------------------------------------|
|-2--------------------2-2---2--------------------2-2----|
|-2h4-4--4-4--4-4-4-4--2-2---2h4-4--4-4--4-4-4-4--2-2----|
|-0h2-2--2-2--2-2-2-2--0-0---0h2-2--2-2--2-2-2-2--0-0----|
|--------------------------------------------------------|

|--------------------------------------------------------|
|--------------------------------------------------------|
|-2--------------------2-2-------------------------------|
|-2h4-4--4-4--4-4-4-4--2-2-------------------------------|
|-0h2-2--2-2--2-2-2-2--0-0---5-5-5-5-5-5-----------------|
|----------------------------3-3-3-3-3-3-----------------|

|--------------------------------------------------------|
|--------------------------------------------------------|
|-2--------------------2-2---2--------------------2-2----|
|-2h4-4--4-4--4-4-4-4--2-2---2h4-4--4-4--4-4-4-4--2-2----|
|-0h2-2--2-2--2-2-2-2--0-0---0h2-2--2-2--2-2-2-2--0-0----|
|--------------------------------------------------------|

|--------------------------------------------------------|
|--------------------------------------------------------|
|-2--------------------2-2-------------------------------|
|-2h4-4--4-4--4-4-4-4--2-2-------------------------------|
|-0h2-2--2-2--2-2-2-2--0-0---5-5-5-5-5-5---4-------------|
|----------------------------3-3-3-3-3-3---2-------------|

Riff C
|--------------------------------------------------------|
|--------------------------------------------------------|
|--------------------------------------------------------|
|---------------2----------------------------------------|
|-5-5-5-5-5-5---2---4-5----------------------------------|
|-3-3-3-3-3-3---0---2-3----------------------------------|

Riff B
|--------------------------------------------------------|
|--------------------------------------------------------|
|-2--------------------2-2---2--------------------2-2----|
|-2h4-4--4-4--4-4-4-4--2-2---2h4-4--4-4--4-4-4-4--2-2----|
|-0h2-2--2-2--2-2-2-2--0-0---0h2-2--2-2--2-2-2-2--0-0----|
|--------------------------------------------------------|

|--------------------------------------------------------|
|--------------------------------------------------------|
|-2--------------------2-2-------------------------------|
|-2h4-4--4-4--4-4-4-4--2-2-------------------------------|
|-0h2-2--2-2--2-2-2-2--0-0---5-5-5-5-5-5-----------------|
|----------------------------3-3-3-3-3-3-----------------|

|--------------------------------------------------------|
|--------------------------------------------------------|
|-2--------------------2-2---2--------------------2-2----|
|-2h4-4--4-4--4-4-4-4--2-2---2h4-4--4-4--4-4-4-4--2-2----|
|-0h2-2--2-2--2-2-2-2--0-0---0h2-2--2-2--2-2-2-2--0-0----|
|--------------------------------------------------------|

|--------------------------------------------------------|
|--------------------------------------------------------|
|-2--------------------2-2-------------------------------|
|-2h4-4--4-4--4-4-4-4--2-2-------------------------------|
|-0h2-2--2-2--2-2-2-2--0-0---5-5-5-5-5-5---4-------------|
|----------------------------3-3-3-3-3-3---2-------------|

Riff C
|--------------------------------------------------------|
|--------------------------------------------------------|
|--------------------------------------------------------|
|---------------2----------------------------------------|
|-5-5-5-5-5-5---2---4-5----------------------------------|
|-3-3-3-3-3-3---0---2-3----------------------------------|



Important: The song above is NOT stored on the Chordie server. The original song is hosted at www.xguitar.com. Chordie works as a search engine and provides on-the-fly formatting. Chordie does not index songs against artists'/composers' will. To remove this song please click here.

This song is displayed as text-only. Transposing and tuning is only available for chordpro-songs.

Login - add to songbook

Rating click stars to rate

Layout
Accuracy

SHARE PAGE  




You need to log in to post comments