Guitar Tabs, Chords and Lyrics


The Stallion    Bathory



Bathory - The Stallion
Tabbed By: Martijn Wietsma
Submitted by: Himmelfarht
Email: this_is_the_prophecy@hotmail.com

Tuning: Standard (E A D G B E)

This tab was made by Martijn Wietsma, so props to him for it!

Riff A
|------------------------------------------------------|
|------------------------------------------------------|
|------------------------------------------------------|
|------------------------------------------------------|
|-7-777--7-777--7-777--7-777---------------------------|
|-5-555--5-555--5-555--5-555---------------------------|
  . ...  . ...  . ...  . ...		(2x)

Riff B
|------------------------------------------------------|
|------------------------------------------------------|
|------------------------------------------------------|
|------------------------------------------------------|
|-7-77-7--7-77-7--7-77-7--7-77-7-----------------------|
|-5-55-5--5-55-5--5-55-5--5-55-5-----------------------|
    ..      ..      ..      ..

Riff C
|------------------------------------------------------|
|------------------------------------------------------|
|------------------------------------------------------|
|----------------------10--5--7------------------------|
|-777--777--777--777----8--3--5--9/10\9----------------|
|-555--555--555--555-------------7/-8\7----------------|

Riff D
|------------------------------------------------------|
|------------------------------------------------------|
|------------------------------------------------------|
|------------------------10--5--7----------------------|
|-7-7-777-7---7-7-777-7---8--3--5--9/10\9--------------|
|-5-5-555-5---5-5-555-5------------7/-8\7--------------|
					(4x)
Riff E
|------------------------------------------------------|
|------------------------------------------------------|
|------------------------------------------------------|
|------------------------------------------------------|
|-7--7--777-7--7--7--777-7---7-7--777------------------|
|-5--5--555-5--5--5--555-5---5-5--555------------------|
					(2x)
Riff F
|------------------------------------------------------|
|------------------------------------------------------|
|------------------------------------------------------|
|----------------------------------------------------2-|
|-7-7-777-7---7-7-777-7---7-7-777-7---7-7-777-7--3-5-2-|
|-5-5-555-5---5-5-555-5---5-5-555-5---5-5-555-5--1-3-0-|
					(2x)
D 4x
E 1x
F 2x
E 1x
D 4x
F 2x
D 4x
E 1x


Important: The song above is NOT stored on the Chordie server. The original song is hosted at www.xguitar.com. Chordie works as a search engine and provides on-the-fly formatting. Chordie does not index songs against artists'/composers' will. To remove this song please click here.

This song is displayed as text-only. Transposing and tuning is only available for chordpro-songs.

Login - add to songbook

Rating click stars to rate

Layout
Accuracy

SHARE PAGE  




You need to log in to post comments