Guitar Tabs, Chords and Lyrics


Massacre    Bathory



Bathory - Massacre
Tabbed By: him_rules
Email: him_rules_@hotmail.com

Tuning: Standard (E A D G B E)



Riff 1 - Verse
|-----------------------------------------|
|-----------------------------------------|
|---------5----------5----------5-5-6-6-5-|
|-----4-4-5------4-4-5------4-4-5-5-6-6-5-|
|---2-4-4-3----2-4-4-3----2-4-4-3-3-4-4-3-|
|-2---2-2----2---2-2----2---2-2-----------|

|-----------------------------------------|
|-----------------------------------------|
|---------5----------5----------5-5-6-6-5-|
|-----4-4-5------4-4-5------4-4-5-5-6-6-5-|
|---2-4-4-3----2-4-4-3----2-4-4-3-3-4-4-3-|
|-2---2-2----2---2-2----2---2-2-----------|



Riff 2 - Chorus
|----------------------------------|
|----------------------------------|
|-7-7-6-6----------7-7-5-5-5-5-5-5-|
|-7-7-6-6-4-4-4-4--7-7-3-3-3-3-3-3-|
|-5-5-4-4-4-4-4-4--5-5-3-3-3-3-3-3-|
|---------2-2-2-2------------------|

|--------------------------------|
|--------------------------------|
|-7-7-6-6----------7-7-5-5-5-5-5-|
|-7-7-6-6-4-4-4-4--7-7-3-3-3-3-3-|
|-5-5-4-4-4-4-4-4--5-5-3-3-3-3-3-|
|---------2-2-2-2----------------|


Riff 3
|---------------------------------|
|---------------------------------|
|-4-4-4-4-4-4---4-5-5-5-5-5-5---5-|
|-4-4-4-4-4-4-4-4-5-5-5-5-5-5-4-5-|
|-2-2-2-2-2-2-4-2-3-3-3-3-3-3-4-3-|
|-------------2---------------2---|

|---------------------------------|
|---------------------------------|
|-4-4-4-4-4-4---4-5-5-5-5-5-5---5-|
|-4-4-4-4-4-4-4-4-5-5-5-5-5-5-4-5-|
|-2-2-2-2-2-2-4-2-3-3-3-3-3-3-4-3-|
|-------------2---------------2---|


Riff 4
|----------------------------------------------------------|
|----------------------------------------------------------|
|----------------------------------------------------------|
|-7/8-7--7/8-7--7/8-7--7/8-4---7/8-7--7/8-7--7/8-7--7/8-10-|
|-7/8-7--7/8-7--7/8-7--7/8-4---7/8-7--7/8-7--7/8-7--7/8-10-|
|-5/6-5--5/6-5--5/6-5--5/6-2---5/6-5--5/6-5--5/6-5--5/6-8--|

|----------------------------------------------------------|
|----------------------------------------------------------|
|----------------------------------------------------------|
|-7/8-7--7/8-7--7/8-7--7/8-4---7/8-7--7/8-7--7/8-7--7/8-10-|
|-7/8-7--7/8-7--7/8-7--7/8-4---7/8-7--7/8-7--7/8-7--7/8-10-|
|-5/6-5--5/6-5--5/6-5--5/6-2---5/6-5--5/6-5--5/6-5--5/6-8--|


Riff 5
|----------------------------------|
|----------------------------------|
|-4-4-5-5-6-6-5-5--4-4-5-5-6-6-5-5-|
|-4-4-5-5-6-6-5-5--4-4-5-5-6-6-5-5-|
|-2-2-3-3-4-4-3-3--2-2-3-3-4-4-3-3-|
|----------------------------------|

|----------------------------------|
|----------------------------------|
|-4-4-5-5-6-6-5-5--4-4-5-5-6-6-5-5-|
|-4-4-5-5-6-6-5-5--4-4-5-5-6-6-5-5-|
|-2-2-3-3-4-4-3-3--2-2-3-3-4-4-3-3-|
|----------------------------------|



song structure:

Riff 1
Riff 2
Riff 1
Riff 2
Riff 1
Riff 3
Riff 4
Riff 1
Riff 2
Riff 1
Riff 5


Important: The song above is NOT stored on the Chordie server. The original song is hosted at www.xguitar.com. Chordie works as a search engine and provides on-the-fly formatting. Chordie does not index songs against artists'/composers' will. To remove this song please click here.

This song is displayed as text-only. Transposing and tuning is only available for chordpro-songs.

Login - add to songbook

Rating click stars to rate

Layout
Accuracy

SHARE PAGE  




You need to log in to post comments