Guitar Tabs, Chords and Lyrics


Woman Of Dark Desires    Bathory



-------------------------------------------------------------------------------
			     Bathory - Woman of dark desires
-------------------------------------------------------------------------------
Tabbed by:skin_guy13
Email:stupid_fukin_kid@yahoo.com

Tuning:standard

riff 1
e|-----------------|
B|-----------------|
G|-----------------|
D|-----------------|
A|-----------------|
E|-0-2-0-3-0-2/3---|

riff 2
e|-----------------|
B|-----------------|
G|-----------------|
D|-----------------|
A|-8-8/7-7/5-------|
E|-8-6/5-5/4-------|

riff 3
e|-----------------|
B|-----------------|
G|-----------------|
D|---4-----3333----|
A|-2-2-4-5-1111----|
E|-0---2-3---------|

riff 4
e|-----------------|
B|-----------------|
G|-----------------|
D|-----------------|
A|-2-4/5-5/4-4444--|
E|-0-2/3-3/2-2222--|

riff 5
e|-----------------|
B|-----------------|
G|-----------------|
D|-----------------|
A|-2-5/6-6/5-5555--|
E|-0-3/4-4/3-3333--|

riff 6
e|-----------------|
B|-----------------|
G|-----------------|
D|-9---11----------|
A|-7-8--9-10-------|
E|---6-----8-------|

riff 7
e|-----------------|
B|-----------------|
G|-----------------|
D|-----------------|
A|-2-2-------------|
E|-0-0-------------|

riff 1       24x
riff 2        1x
riff 3        4x
riff 1       24x
riff 2        1x
riff 3        4x
riff 4        2x
riff 5        2x
riff 4        2x
riff 5        2x
riff 6        4x
riff 1       40x
riff 2        1x
riff 3        8x
riff 7        1x
| /  slide up


Important: The song above is NOT stored on the Chordie server. The original song is hosted at www.xguitar.com. Chordie works as a search engine and provides on-the-fly formatting. Chordie does not index songs against artists'/composers' will. To remove this song please click here.

This song is displayed as text-only. Transposing and tuning is only available for chordpro-songs.

Login - add to songbook

Rating click stars to rate

Layout
Accuracy

SHARE PAGE  




You need to log in to post comments