The Thrill Is Gone

B.B. King

E||----------------------|--10b------------------------|

B||--12~-----------12----|------12--10-----------------|
G||----------------------|--------------9b-7--7--9-----|
D||----------------------|--------------------------9--|
A||----------------------|-----------------------------|
E||----------------------|-----------------------------|
------------------------|---------7----------|--10b-----10------------|
------------------------|------7-------------|--------------12~-------|
--7b--------------7--9b-|--------------------|------------------------|
-----9--9--9~-----------|--------------------|------------------------|
------------------------|--------------------|------------------------|
------------------------|--------------------|------------------------|
----------10b-11--12--12b-12--|--10b---10b-------------10b-|
------12----------------------|--------------12----12------|
------------------------------|----------------------------|
------------------------------|----------------------------|
------------------------------|----------------------------|
------------------------------|----------------------------|
----10----10--------------|--10b-12--12--10--------------|
--------------12----12~---|------------------12~---12----|
--------------------------|------------------------------|
--------------------------|------------------------------|
--------------------------|------------------------------|
--------------------------|------------------------------|
------12--12r-10----10h12----|--10b-----10--------10b---|----------------7----|
-----------------------------|--------------12~---------|--12------------7----|
-----------------------------|--------------------------|---------------------|
-----------------------------|--------------------------|---------------------|
-----------------------------|--------------------------|---------------------|
-----------------------------|--------------------------|---------------------|
------------------|------------------|------------------|------------------|
------------------|------------------|------------------|------------------|
------------------|------------------|------------------|------------------|
------------------|------------------|------------------|------------------|
------------------|------------------|------------------|------------------|
------------------|------------------|------------------|------------------|
------------------|------------------|------------------|------------------|
------------------|------------------|------------------|------------------|
------------------|------------------|------------------|------------------|
------------------|------------------|------------------|------------------|
------------------|------------------|------------------|------------------|
------------------|------------------|------------------|------------------|
------------------|------------------|------------------|------------------|
------------------|------------------|------------------|------------------|
------------------|------------------|------------------|------------------|
------------------|------------------|------------------|------------------|
------------------|------------------|------------------|------------------|
------------------|------------------|------------------|------------------|
---------------------|--------------7----|------------------|
---------------------|--------------7----|------------------|
--------------9p7----|-------------------|------------------|
---------------------|-------------------|------------------|
---------------------|-------------------|------------------|
---------------------|-------------------|------------------|
---------------------------|--------------------------|------------------|
--------7--10--10b-10b-10--|--10b---10b---10b---10b---|------------------|
---------------------------|--------------------------|------------------|
---------------------------|--------------------------|------------------|
---------------------------|--------------------------|------------------|
---------------------------|--------------------------|------------------|
------10b-10b-----------|---------------------|------------------|
--------------12~-------|---------------------|------------------|
------------------------|--------------9p7----|------------------|
------------------------|---------------------|------------------|
------------------------|---------------------|------------------|
------------------------|---------------------|------------------|
------------------|-------------------|--7----------10--10--12--|
------------------|--------------7----|-------------------------|
------------------|-------------------|-------------------------|
------------------|-------------------|-------------------------|
------------------|-------------------|-------------------------|
------------------|-------------------|-------------------------|
------------------10--12--|--12r---12----10b---12--12b-|
--12~---------12----------|----------------------------|
--------------------------|----------------------------|
--------------------------|----------------------------|
--------------------------|----------------------------|
--------------------------|----------------------------|
--------10b-12p-10b---10b---|--------10------------|------------19--19----|
----12----------------------|--12------------------|----------------------|
----------------------------|----------------------|----------------------|
----------------------------|----------------------|----------------------|
----------------------------|----------------------|----------------------|
----------------------------|----------------------|----------------------|
--10b---10~---7~-----------|--------------------------|
-------------------10-7----|-----------------------7--|
------------------------9--|--7---------------7-9-----|
---------------------------|-----7--9--9--9~----------|
---------------------------|--------------------------|
---------------------------|--------------------------|
--7--------7------------7--|--7----10--10b-10b---7----|------------------|
-------10-----7--7--10-----|--------------------------|------------------|
---------------------------|--------------------------|------------------|
---------------------------|--------------------------|------------------|
---------------------------|--------------------------|------------------|
---------------------------|--------------------------|------------------|
------------------|-------------------|------------------|------------------|
------------------|--------------7----|------------------|------------------|
------------------|-------------------|------------------|------------------|
------------------|-------------------|------------------|------------------|
------------------|-------------------|------------------|------------------|
------------------|-------------------|------------------|------------------|
------------------|------------------|------------------|------------------|
------------------|------------------|------------------|------------------|
------------------|------------------|------------------|------------------|
------------------|------------------|------------------|------------------|
------------------|------------------|------------------|------------------|
------------------|------------------|------------------|------------------|
------------------|------------------|------------------|------------------|
------------------|------------------|------------------|------------------|
------------------|------------------|------------------|------------------|
------------------|------------------|------------------|------------------|
------------------|------------------|------------------|------------------|
------------------|------------------|------------------|------------------|
--------------7----|------------------|------7------------|-------------------|
-------------------|------------------|------9------------|--------------7----|
-------------------|------------------|-------------------|-------------------|
-------------------|------------------|-------------------|-------------------|
-------------------|------------------|-------------------|-------------------|
-------------------|------------------|-------------------|-------------------|
------------------|------------------|------------------|--------------7----|
------------------|------------------|------------------|--------------9----|
------------------|------------------|------------------|-------------------|
------------------|------------------|------------------|-------------------|
------------------|------------------|------------------|-------------------|
------------------|------------------|------------------|-------------------|
------------------|------------------|------------------|------------------|
------------------|------------------|------------------|------------------|
------------------|------------------|------------------|------------------|
------------------|------------------|------------------|------------------|
------------------|------------------|------------------|------------------|
------------------|------------------|------------------|------------------|
-----------------7--|--7--------------10------|----------10--12b-12b-10--12--|
--------------7-----|-------12--12~-----------|------12----------------------|
--------------------|-------------------------|------------------------------|
--------------------|-------------------------|------------------------------|
--------------------|-------------------------|------------------------------|
--------------------|-------------------------|------------------------------|
------------12r-10------|--------10b-12b------12p10--|
--12~-------------------|----12----------------------|
------------------------|----------------------------|
------------------------|----------------------------|
------------------------|----------------------------|
------------------------|----------------------------|
--12----12b-10--12----------|--------10--12--12r-10--12----|
--------------------12~-----|----12------------------------|
----------------------------|------------------------------|
----------------------------|------------------------------|
----------------------------|------------------------------|
----------------------------|------------------------------|
--12p-10--10--12-------------|--7-----------------------|
------------------12~-----7--|-----10-----7----------7--|
-----------------------------|---------9-----7----7-----|
-----------------------------|--------------------------|
-----------------------------|--------------------------|
-----------------------------|--------------------------|
--7--7--10--10--9----9h10p9p7--|--7----10p7------------7--10--|
-------------------------------|----------------7--10---------|
-------------------------------|------------------------------|
-------------------------------|------------------------------|
-------------------------------|------------------------------|
-------------------------------|------------------------------|
--7-------------------|---------------7-----7--|------12r-10--12----------|
-----------10---------|------------7-----7-----|------------------12\\-----|
-----------------9b---|------7--9--------------|--------------------------|
----------------------|------------------------|--------------------------|
----------------------|------------------------|--------------------------|
----------------------|------------------------|--------------------------|
------10h-12------------|--------10--12--12r-10--12--12b-|
--------------12~-------|----12--------------------------|
------------------------|--------------------------------|
------------------------|--------------------------------|
------------------------|--------------------------------|
------------------------|--------------------------------|
--------10--------10------|------19--19--19--19--19--19--19--|
------------12--------12--|--12------------------------------|
--------------------------|----------------------------------|
--------------------------|----------------------------------|
--------------------------|----------------------------------|
--------------------------|----------------------------------|
--19\\---9h10p9---10b-----7--|--10b--------------------|
----------------------------|--------12--12~----------|
----------------------------|----------------------7--|
----------------------------|-------------------------|
----------------------------|-------------------------|
----------------------------|-------------------------|
---------------------------|-----------------------------|
------------7--10--10--10b-|--10b---10b---7--10--10--10b-|
------7--9-----------------|-----------------------------|
---------------------------|-----------------------------|
---------------------------|-----------------------------|
---------------------------|-----------------------------|
----------------------|--------------------|-----------7--10b---10~---|
--10b---10b-----------|--------------------|--------7-----------------|
----------------------|-----------------7--|--9--9b-------------------|
----------------------|--------------9-----|--------------------------|
----------------------|--------------------|--------------------------|
----------------------|--------------------|--------------------------|
--7----------------------|----------------------|--------7--------------|
-------10----------------|----------------------|-----7-----10b---------|
-----------9b-----7h9----|--7-------7b----------|--9--------------------|
-------------------------|-------9-----9--------|-----------------------|
-------------------------|----------------------|-----------------------|
-------------------------|----------------------|-----------------------|
----------------------|-----7--7----19----10----|
----------------------|--7----------------------|
--7-------------7--9--|-------------------------|
-----------9~---------|-------------------------|
----------------------|-------------------------|
----------------------|-------------------------|
--------10--7-------------------|-----------------------|---------------------|
--12~----------10--7------------|-----------------------|---------------------|
----------------------9h10p9p7--|------7b-9--7b---------|------7b-------------|
--------------------------------|-----------------9--9--|-------------9--9----|
--------------------------------|-----------------------|---------------------|
--------------------------------|-----------------------|---------------------|
-------------------|----------------------|--------------------|
-------------------|----------------------|-----------7--------|
------7r-----------|------9r--7------7b---|------9b------------|
-------------------|------------9---------|--------------------|
-------------------|----------------------|--------------------|
-------------------|----------------------|--------------------|
---------------------|--------------------|-------------------|
---------------------|------10------------|-------------------|
------7b-7b----------|------9b------------|------7b-----------|
------------9--------|--------------------|-------------------|
---------------------|--------------------|-------------------|
---------------------|--------------------|-------------------|
--------------------|----------------------|-------------------|
------10b-----------|-----------7----------|-------------------|
--------------------|------7--9------------|------7b-----------|
--------------------|-------------9--------|-------------------|
--------------------|----------------------|-------------------|
--------------------|----------------------|-------------------|
--------------------|--------------------|------------------|
--------------------|------10------------|------------------|
------7r------------|--------------------|------------------|
-----------9--------|--------------------|------------------|
--------------------|--------------------|------------------|
--------------------|--------------------|------------------|
-----------------------|---------------------||
------10/12/-----------|---------------------||
-----------------------|------9-7------------||
-----------------------|----------9----------||
-----------------------|---------------------||
-----------------------|---------------------||

 F#7-242322
1.
 Bm
       Thrill is gone
Thrill is gone away
 G7
       Thrill is gone baby
 Bm
       Thrill is gone away
 G7F#7
       Know you done me wrong
 Bm
       You'll be sorry some day

2.
 Bm
       Thrill is gone
The thrill is gone away from me
 G7
       Thrill is gone
The thrill is gone away from me
 G7F#7
       Oh I'll still live on baby
 Bm
       But so lonely I'll be

3.
 Bm
       Thrill is gone
Thrill is gone for good
 G7
       Oh the thrill is gone baby
 Bm
       It's gone away for good
 G7F#7
       Some day I know I'll be open baby
 Bm
       Like I know I should

4.
 Bm
       I'm free now baby
I'm free from your spell
 G7
       Free, free, free, now baby
 Bm
       Baby I'm free from your spell
 G7F#7
       Now that its all over
 Bm
       All I can do is wish you well
5.
 Bm
       Thrill is gone
Thrill is gone away for good
 Bm
       Thrill is gone baby
 Bm
       Thrill is gone away for good
Know you done me wrong baby
 Bm
       You'll be sorry some day
 Bm
       The thrill is gone
I'm free from your spell......(fade)
********************************************************************
THE THRILL IS GONE by B.B. King can be found on these recordings:
(1997) DEUCES WILD
(1996) HOW BLUES CAN YOU GET (double CD) MCAD2 11443
KING OF THE BLUES (4 box set)
(1992) WHY I SING THE BLUES - MCAD 20256
(1990) LIVE AT SAN QUENTIN - MCAD 6455
(1980) B.B. KING NOW APPEARING AT OLE MISS - MCA2-8016
THE BEST OF B.B. KING - ABCX 767
(1970) B.B. KING LIVE AT COOK COUNTY JAIL - ABCS 723
(1969) COMPLETLY WELL - BL 6037


Bm F#7 G7
variations - click chord images
Transpose chords:
Tuning:
Cool service:
View: Size:
A  A  A
Rating:
Layout:
  • Currently 2.8/5 Stars.
  • 1
  • 2
  • 3
  • 4
  • 5
 
Accuracy:
  • Currently 2.4/5 Stars.
  • 1
  • 2
  • 3
  • 4
  • 5
 
click stars to rate
Chordie recommends:
Get acoustic guitar lessons and electric guitar lessons at JamPlay.com
Songbook:
Login to add this song to your songbook
Support the artist
Preview/buy this song
MSN Music
Why this non-profit ad?

 
login to add comments/video/corrections

melski (report comment to admin):
tHE SECOND CHORD SHOULD BE TO THE 4TH. NOT TO THE MINOR 6TH. AS IN KEY OF B THE SECOND CHORD SHOULD BE E NOT G

SINCERELY
mEL