Chordie logo

Here Comes the Night    Beach Boys





Date: Sat, 23 Sep 2000 00:12:25 -0400
From: "John Deacon" 
Subject: b/beach_boys/here_comes_the_night.crd

Song Title: Here Comes the Night   Artist: The Beach Boys
Music: Brian Wilson                Words: Mike Love
Album: Wild Honey                  Time: 2:44

              HERE COMES THE NIGHT (Wilson/Love)

INTRO:
                       Figure 1:

Chord:    C   C   F   F       C  N/C
Bass:g|-------------------|-------------------|
     d|-------------------|-------------------|
     a|---3---3---3---3---|---3-----3-----3---|
     e|-------------------|-------3-----3-----|
          ^   ^   ^   ^       ^   ^   ^   ^

                       Figure 2:

Chord:    C   C   F   F     C   N/C (Bass Run)
Bass:g|-------------------|------5-3----------|
     d|-------------------|---------5-3-------|
     a|---3---3---3---3---|---3--------5-3----|
     e|-------------------|---------------5-3-|
          ^   ^   ^   ^       ^   ^   ^   ^

VERSE:    |  G    | G(7)* |  C    |  C    |

Play Pattern 3 times for every verse.

*7th is suggested by the F note in the melody.

CHORUS:   |  F    |  G    |  Ab   | G     |

          |  F    |  G    |  Ab   | G     |

          |  F    |  G    |  Ab   | G     |

          |  F    |  G    | PLAY FIGURE 2 |

Back to Verse, Chorus (ends with fig 2), Verse, Chorus fades.

Any comments, suggests, corrections, or anything else, please e-mail me at
[abababab41@hotmail.com].


Important: The song above is NOT stored on the Chordie server. The original song is hosted at www.xguitar.com. Chordie works as a search engine and provides on-the-fly formatting. Chordie does not index songs against artists/composers will. To remove this song please click here.

This song is displayed as text-only. Transposing and tuning is only available for chordpro-songs.

Login - add to songbook

Rating click stars to rate

Layout
Accuracy

SHARE PAGE  

You need to log in to post comments

Hogboy (report)

Whoa here it comes,
A E
Here comes the night,
A E
Here comes the night,
A E B
Woh-oo oh-oo oh-oo yeah.

------------------|
------------------|
------------------|
----2---1--1-2--4-|
--2---2-----------|
------------------|


Verse 1

E
I could see right out my window,
B
Walking down the street,
E A B
My girl with another guy,

Guitar lick:
------------------------|
------------------------|
--9------9-------8------|
----9s11---11s7-----9---|
------------------------|
------------------------|

E B
His arm around her like it used to be with me.
E
Oh-oo it makes me want to die.

----------------------------|
----------------------------|
--11--9--8------------------|
------------11--9--7--6--4--|
----------------------------|
----------------------------|

B E
Yeah-e yeah-e yeah-e well here it comes,


Chorus
A E
Here comes the night,
A E
Here comes the night,
A E B
Oh-oo oh-oo oh-oo yeah.

Verse2
There they go,
It's funny how they look so good together,
Wonder what is wrong with me.
Why can't I accept the fact she's chosen him,
And simply let them be.
Wo-oo oh-oo oh well here it comes,

Here comes the night,
Here comes the night,
Oh-oo oh-oo oh-oo yeah.


Verse 3
She's with him,
He's turning down the lights,
And now he's holdin' her,
The way I used to do.
I could see her closing her eyes,
And tellin' him lies,
Exactly like she told me too.
Yeah-e yeah-e yeah-e well here it comes,