eToCache5 = ""; ?> Every Little Thing by Beatles - guitar chords, guitar tabs and lyrics - chordie

Every Little Thing

Beatles

Intro:
 AAE
E|---------0-0-----0-----0-----0---|-0-0-----0----------------------
B|---------0-0-----0-----0-----0---|-0-0-----3----------------------
G|---------6/7-----6-----4-----2---|-2/4-----4----------------------
D|---------------------------------|--------------------------------
A|---------------------------------|--------------------------------
E|---------------------------------|--------------------------------

^ ^ ^ ^ ^ ^ ^ ^
Verse 1:
 ADEAGDA
 When I'm walking beside her    People tell me I'm lucky 
 BB7/AE/G#ADE
 Yes, I know I'm a lucky guy    I remember the first time
 AGDABB7/AE/G#A
 I was lonely without her       Yes I'm thinking about her now
Chorus:(This tab is the Chorus Figure)
 AG
  Every little                      thing she does
E|-9-------------------------------|--9\7--------7-------7---7------
B|-10------------------------------|-10\8--------8-------8---8------
G|-9-------------------------------|--9\7--------7-------7---7------
D|---------------------------------|--------------------------------
A|---------------------------------|--------------------------------
E|---------------------------------|--------------------------------

^ ^ ^ ^ ^ ^ ^ ^
 A
  she does for                      me yeah
E|-9-------------------------------|-7/9-------------7/9------------
B|-10------------------------------|-8/10------------8/10-----------
G|-9-------------------------------|-7/9-------------7/9------------
D|---------------------------------|--------------------------------
A|---------------------------------|--------------------------------
E|---------------------------------|--------------------------------

^ ^ ^ ^ ^ ^ ^ ^
 AG
  And you know the                  things she does
E|-9-------------------------------|--9\7--------7-------7---7------
B|-10------------------------------|-10\8--------8-------8---8------
G|-9-------------------------------|--9\7--------7-------7---7------
D|---------------------------------|--------------------------------
A|---------------------------------|--------------------------------
E|---------------------------------|--------------------------------

^ ^ ^ ^ ^ ^ ^ ^
 A
  she does for                      me, woo
E|-9-------------------------------|-7/9-------------7/9------------
B|-10------------------------------|-8/10------------8/10-----------
G|-9-------------------------------|-7/9-------------7/9------------
D|---------------------------------|--------------------------------
A|---------------------------------|--------------------------------
E|---------------------------------|--------------------------------

^ ^ ^ ^ ^ ^ ^ ^
Verse 2:
 ADEAGDA
 When I'm with her I'm happy      Just to know that she loves me 
 BB7/AE/G#ADE
 Yes, I know that she loves me now    There is one thing I'm sure of
 AGDABB7/AE/G#A
 I will love her forever      For I know love will never die  
Chorus:(With Chorus Figure)
 AGA
 Every little thing she does    she does for me, yeah
 GA
And you know the things she does   she does for me, woo
Solo:
 ADE
E|---------0-0-----0-----0-----0---|-0-0-----0----------------------
B|---------0-0-----0-----0-----0---|-0-0-----3----------------------
G|---------6/7-----6-----4-----2---|-2/4-----4----------------------
D|---------------------------------|--------------------------------
A|---------------------------------|--------------------------------
E|---------------------------------|---------------------0---2---4--

^ ^ ^ ^ ^ ^ ^ ^
 AGDA
E|---------0-0-----0-----0-----0---|-3-------2----------------------
B|---------0-0-----0-----0-----0---|-0-------3----------------------
G|---------6/7-----6-----4-----2---|-0-------2----------------------
D|---------------------------------|-0-------0----------------------
A|-0-------------------------------|--------------------------------
E|---------------------------------|--------------------------------

^ ^ ^ ^ ^ ^ ^ ^
 BB7/AE/G#A
E|---------------------------------|--------------------------------
B|------3---------------3----------|-----------3-----2--------------
G|-4---------4-----2---------2-----|------4----------2--------------
D|---------------------------------|-6---------------2--------------
A|---------------------------------|--------------------------------
E|---------------------------------|--------------------------------

^ ^ ^ ^ ^ ^ ^ ^
 ADE
E|---------0-0-----0-----0-----0---|-0-0-----0----------------------
B|---------0-0-----0-----0-----0---|-0-0-----3----------------------
G|---------6/7-----6-----4-----2---|-2/4-----4----------------------
D|---------------------------------|--------------------------------
A|---------------------------------|--------------------------------
E|---------------------------------|--------------------------------

^ ^ ^ ^ ^ ^ ^ ^
Chorus:(With Chorus Figure)
 AGA
 Every little thing she does    she does for me, yeah
 GA
And you know the things she does   she does for me, woo
Coda:
 ADE
                                                       Every little
E|---------0-0-----0-----0-----0---|-0-0-----0----------------------
B|---------0-0-----0-----0-----0---|-0-0-----3----------------------
G|---------6/7-----6-----4-----2---|-2/4-----4----------------------
D|---------------------------------|--------------------------------
A|---------------------------------|--------------------------------
E|---------------------------------|--------------------------------

^ ^ ^ ^ ^ ^ ^ ^
 ADE
  thing                                                Every little
E|---------0-0-----0-----0-----0---|-0-0-----0----------------------
B|---------0-0-----0-----0-----0---|-0-0-----3----------------------
G|---------6/7-----6-----4-----2---|-2/4-----4----------------------
D|---------------------------------|--------------------------------
A|---------------------------------|--------------------------------
E|---------------------------------|-------------------------------- 

(Repeat and fade out)
-----------------------------------------------------------------

| Tabbed By the Beatles Central Team (jpgr_beatles@yahoo.com) |
| Visit Beatles Central for every major release by The Beatles |
| in MIDI and Tab form (over 250 songs), as well as biographies.|
| http://members.tripod.com/~jpgr_beatles/index.html |
-----------------------------------------------------------------



A B D E E/G# G
variations - click chord images
Transpose chords:
Tuning:
Cool service:
View: Size:
A  A  A
Rating:
Layout:
  • Currently 2.5/5 Stars.
  • 1
  • 2
  • 3
  • 4
  • 5
 
Accuracy:
  • Currently 1.9/5 Stars.
  • 1
  • 2
  • 3
  • 4
  • 5
 
click stars to rate
Chordie recommends:
Get acoustic guitar lessons and electric guitar lessons at JamPlay.com
Songbook:
Login to add this song to your songbook
Support the artist
Preview/buy this song
MSN Music
Why this non-profit ad?

 
login to add comments/video/corrections

Luweege (report comment to admin):
I believe its a desending Bm on "Every Little Thing"
Luweege (report comment to admin):
Bm instead of B major on this one