eToCache5 = ""; ?> Everybody's Trying To Be My Baby by Beatles - guitar chords, guitar tabs and lyrics - chordie

Everybody's Trying To Be My Baby

Beatles

Verse 1:
 E
Well they took some honey
From a tree
Dressed it up and they called it me
Chorus:
 A
 Everybody's trying to be my baby
 E
 Everybody's trying to be my baby
 B7AE
 Everybody's trying to be my baby now 
Verse 2:
 E
Well, half past nine
Half past four
Fifty women knocking on my door
Chorus:
 A
 Everybody's trying to be my baby
 E
 Everybody's trying to be my baby
 B7AE
 Everybody's trying to be my baby now 
Solo 1:
 E
E|---------7---------------7-------|-7-----------7--------------7---
B|---------0---------------0-------|-----0---------------7----------
G|---------------------------------|---------7----------------------
D|---------------------------------|--------------------------------
A|---------------------------------|--------------------------------
E|---------------------------------|--------------------------------

^ ^ ^ ^ ^ ^ ^ ^
E|---------7-----------------------|-7-----------7-------7----------
B|---------0-----------------------|---------------------0----------
G|-------------------------7-------|-----7--------------------------
D|---------------------------------|--------------------------------
A|---------------------------------|--------------------------------
E|---------------------------------|--------------------------------

^ ^ ^ ^ ^ ^ ^ ^
 A
E|---------12----------------------|-12---------12------------------
B|----------0----------------------|-------------0------------------
G|------------------------12-------|--------------------12------7---
D|---------------------------------|--------------------------------
A|---------------------------------|--------------------------------
E|---------------------------------|--------------------------------

^ ^ ^ ^ ^ ^ ^ ^
 E
E|---------7-----------------------|-7------------------------------
B|---------0-----------------------|-0------------------------------
G|-------------------------7-------|-------------7------------------
D|---------------------------------|--------------------------------
A|---------------------------------|--------------------------------
E|---------------------------------|---------------------4---5---6--

^ ^ ^ ^ ^ ^ ^ ^
 B7A
E|-----7---7---7---7---7---7-------|-5---5---5---5---5---5---5---5--
B|-----7---7---7---7---7---7-------|-5---5---5---5---5---5---5---5--
G|-----8---8---8---8---8---8-------|-6---6---6---6---6---6---6---6--
D|-----9---9---9---9---9---9-------|-7---7---7---7---7---7---7---7--
A|---------------------------------|-7---7---7---7---7---7---7---7--
E|-7-------------------------------|-5---5---5---5---5---5---5---5--

^ ^ ^ ^ ^ ^ ^ ^
 E
E|---------0-----------------------|-----0--------------0-------0---
B|---------0-----------3-----------|------------3-------1-------1---
G|-----------------------------0---|-1------------------------------
D|---------------------------------|--------------------------------
A|---------------------------------|--------------------------------
E|---------------------------------|--------------------------------

^ ^ ^ ^ ^ ^ ^ ^
Verse 3:
 E
Went out last night
Didn't stay late
'Fore I got home I had nineteen dates
Chorus:
 A
 Everybody's trying to be my baby
 E
 Everybody's trying to be my baby
 B7AE
 Everybody's trying to be my baby now 
Solo 2:
 E
E|---------3-----------3-----------|-3-----------3-------3----------
B|---------3-----------3-----------|-3-----------3-------3----------
G|---------------------------------|--------------------------------
D|---------------------------------|--------------------------------
A|---------------------------------|--------------------------------
E|---------------------------------|--------------------------------

^ ^ ^ ^ ^ ^ ^ ^
E|---------3-----------3-----------|-3-----------3-------3----------
B|---------3-----------3-----------|-3-----------3-------3----------
G|---------------------------------|--------------------------------
D|---------------------------------|--------------------------------
A|---------------------------------|--------------------------------
E|---------------------------------|--------------------------------

^ ^ ^ ^ ^ ^ ^ ^
 A
E|---------3---------------3-------|-3-----------3-------3----------
B|---------2---------------2-------|-2-----------2-------2----------
G|---------------------------------|--------------------------------
D|---------------------------------|--------------------------------
A|--0------------------0-----------|--------------------------------
E|---------------------------------|--------------------------------

^ ^ ^ ^ ^ ^ ^ ^
 E
E|---------3-----------3-----------|-3-----------3------------------
B|---------3-----------3-----------|-3-----------3------------------
G|---------------------------------|--------------------------------
D|---------------------------------|--------------------------------
A|---------------------------------|--------------------------------
E|---------------------------------|--------------------------------

^ ^ ^ ^ ^ ^ ^ ^
 B7A
E|---------9-----------9-----------|-7---5-------3------------------
B|---------7-----------7-----------|-5---5---------------5----------
G|---------------------------------|--------------------------------
D|---------------------------------|--------------------------------
A|---------------------------------|--------------------------------
E|---------------------------------|--------------------------------

^ ^ ^ ^ ^ ^ ^ ^
 E
E|---------0-----------------------|-----0---------------------------
B|---------0-----------0-----------|-------------3-------------------
G|---------------------0-------0---|-1-------------------------------
D|---------------------------------|--------------------------------
A|---------------------------------|--------------------------------
E|---------------------------------|--------------------------------

^ ^ ^ ^ ^ ^ ^ ^
E|---------15------15---------15---|--------15------15--------------
B|----------------------------12---|--------12------12------15------
G|---------13------13--------------|------------------------13------
D|---------------------------------|--------------------------------
A|---------------------------------|--------------------------------
E|---------------------------------|--------------------------------

^ ^ ^ ^ ^ ^ ^ ^
E|---------15----------15----------|-15-----15------15--------------
B|---------12----------------------|-12-----12------12------15------
G|---------------------13----------|------------------------13------
D|---------------------------------|--------------------------------
A|---------------------------------|--------------------------------
E|---------------------------------|--------------------------------

^ ^ ^ ^ ^ ^ ^ ^
 A
E|---------12----------12--12------|-12----------12------12---------
B|---------12----------12--12------|-12----------12------12---------
G|---------12----------12--12------|-12----------12------12---------
D|---------------------------------|--------------------------------
A|---------------------------------|--------------------------------
E|---------------------------------|--------------------------------

^ ^ ^ ^ ^ ^ ^ ^
 E
E|---------0-----------------------|-----0--------------------------
B|---------------------3-----------|-------------3------------------
G|-----------------------------0---|-1------------------------------
D|---------------------------------|--------------------------------
A|---------------------------------|-------------------------0---1--
E|-0-------------------------------|---------------------4----------

^ ^ ^ ^ ^ ^ ^ ^
 B7A
E|-----2---------------2-----------|-----3------2---------------0---
B|-----0-------0-------0-------0---|-----0------0---------------0---
G|---------------------------------|---------------------2----------
D|---------------------------------|--------------------------------
A|-2-------------------------------|--------------------------------
E|---------------------------------|--------------------------------

^ ^ ^ ^ ^ ^ ^ ^
 E
E|---------0-----------------------|-----0---------------0---0---0--
B|---------0-----------3-----------|-------------3-------0---0---0--
G|-----------------------------0---|-1------------------------------
D|---------------------------------|--------------------------------
A|---------------------------------|--------------------------------
E|-0-------------------------------|--------------------------------

^ ^ ^ ^ ^ ^ ^ ^
Verse 4:
 E
Went out last night
Didn't stay late
'Fore I got home I had nineteen dates
Chorus:
 A
 Everybody's trying to be my baby
 E
 Everybody's trying to be my baby
 B7AE
 Everybody's trying to be my baby now 
Verse 5:
 E
Well they took some honey
From a tree
Dressed it up and they called it me
Chorus:
 A
 Everybody's trying to be my baby
 E
 Everybody's trying to be my baby
 B7AE
 Everybody's trying to be my baby now 
Coda:
 E
E|-------------0---0-------0-------|-0---0---0---0-----------0------
B|-----3-----------2-------2-------|-1-------0---0-----------0------
G|-----4-----------3-------3-------|-2-------0---1-----------1------
D|---------------------------------|--------------------------------
A|---------------------------------|--------------------------------
E|---------------------------------|--------------------------------

^ ^ ^ ^ ^ ^ ^ ^
 B7
E|---------------------------------|--------------------------------
B|-----------------------------3---|-------------------------3------
G|-----0-------1---------2/4-------|-2---0-------------------1------
D|---------------------------------|---------0---2-----------2------
A|---------------------------------|-------------------------2------
E|---------------------------------|--------------------------------

^ ^ ^ ^ ^ ^ ^ ^
-----------------------------------------------------------------

| Tabbed By the Beatles Central Team (jpgr_beatles@yahoo.com) |
| Visit Beatles Central for every major release by The Beatles |
| in MIDI and Tab form (over 250 songs), as well as biographies.|
| http://members.tripod.com/~jpgr_beatles/index.html |
-----------------------------------------------------------------



A B7 E
variations - click chord images
Transpose chords:
Tuning:
Cool service:
View: Size:
A  A  A
Rating:
Layout:
  • Currently 2.3/5 Stars.
  • 1
  • 2
  • 3
  • 4
  • 5
 
Accuracy:
  • Currently 2.7/5 Stars.
  • 1
  • 2
  • 3
  • 4
  • 5
 
click stars to rate
Chordie recommends:
Get acoustic guitar lessons and electric guitar lessons at JamPlay.com
Songbook:
Login to add this song to your songbook
Support the artist
Preview/buy this song
MSN Music
Why this non-profit ad?

 
login to add comments/video/corrections

morey (report comment to admin):
 ANOTHER CARL PERKINS TUNE?