""; ?> Come Together by Beatles - guitar chords, guitar tabs and lyrics - chordie

Come Together

Beatles

-------------------

-------------------

-------------10----

-------------10-12-

-------10h12-------

-10-10-------------


 D7#9
-------------------------
-------------------------
-------------------------
-------------------------
-12-12-14-14-12-12-14-14-
-10-10-10-10-10-10-10-10-

 A
-----------------
-----------------
-----------------
-----------------
-7-7-9-9-7-7-9-9-
-5-5-5-5-5-5-5-5-

bridge:
 A
 guitar 1:
-15(17)~---15(17)-15(17)15-13--15(17)~--15(17)~---15(17)-15(17)15-13-12~-
-------------------------------------------------------------------------
-------------------------------------------------------------------------
-------------------------------------------------------------------------
-------------------------------------------------------------------------
-------------------------------------------------------------------------

guitar 2:
-------------------------------------------------------------------------
-15(17)~---15(17)-15(17)15-13--15(17)~--15(17)~---15(17)-15(17)15-13-----
---------------------------------------------------------------------14~-
-------------------------------------------------------------------------
--------------------------------------------------------------------------
-------------------------------------------------------------------------

guitar 1:
-15(17)-15(17)15-13--15(17)~-
-----------------------------
-----------------------------
-----------------------------
-----------------------------
-----------------------------

guitar 2:
-----------------------------
-15(17)-15(17)15-13--13(15)~-
-----------------------------
-----------------------------
-----------------------------
-----------------------------

Outro:
-----------13(15)-13(15)13-10----------------------------------
-13(15)~----------------------13(15)~------------------13(15)~-
---------------------------------------10-12(14)12-10----------
---------------------------------------------------------------
---------------------------------------------------------------
---------------------------------------------------------------
-10-13(15)13-10--------------------------15(17)~---15(17)-15(17)15-15(17)~-
----------------13(15)~---10-13(15)13-10-----------------------------------
---------------------------------------------------------------------------
---------------------------------------------------------------------------
---------------------------------------------------------------------------
---------------------------------------------------------------------------
-17-20(22)20-17-20(22)~---17-20(22)20-17-20(22)~---15(17)-15(17)15-15(17)~-
---------------------------------------------------------------------------
---------------------------------------------------------------------------
---------------------------------------------------------------------------
---------------------------------------------------------------------------
---------------------------------------------------------------------------
---------------------------13(15)-13(15)13-10---------
----------------13(15)~-----------------------13(15)~-
-10-12(14)12-10---------------------------------------
------------------------------------------------------
------------------------------------------------------
------------------------------------------------------

fade out
Lyrics:
 D7#9
 Here come old flat top, He come grooving up slowly,
He got Joo Joo eyeball, He one holy roller
 A
He got  Hair down to his knee;
 G7
 Got to be a joker, he just do what he please.
 D7#9
           He wear no shoe shine, he got toe jam football
He got monkey finger, he shoot co-ca cola
 A
He say, "I know you, you know me."
 G7
 One thing I can tell you is you got to be free
 BmAGA
Come Together, Right now, over me
(main riff)
 D7#9
 He bag production, He got wal-rus gumboot
He got O-no sideboard, He one spinal cracker
 A
He got feet down below his knee
 G7
 Hold you in his armchair, you can feel his disease
 BmAGA
Come together, right now,  over me
(main riff)
 A
 Right!
 D7#9
 He come
 D7#9
 He roller coaster, he got early warning
He got muddy water, He one Mo-jo filter
 A
He say, " One and one and one is three."
 G
 Got to be good looking 'cause he so hard to see
 BmAGA
Come together, Right now, over me
 D7#9
 Come together...come together...come together....(fade)


A Bm D7#9 G G7
variations - click chord images
Transpose chords:
Tuning:
Cool service:
View: Size:
A  A  A
Rating:
Layout:
  • Currently 2.5/5 Stars.
  • 1
  • 2
  • 3
  • 4
  • 5
 
Accuracy:
  • Currently 2.5/5 Stars.
  • 1
  • 2
  • 3
  • 4
  • 5
 
click stars to rate
Chordie recommends:
Learn how to play guitar at JamPlay.com
Songbook:
Login to add this song to your songbook
Support the artist
Preview/buy this song
MSN Music
Why this non-profit ad?

 
login to add comments/video/corrections